Madonna

Dont Tell Me
Frozen
Hollywood
One More Chance
Power Of Goodbye
Ray Of Light
Secret
Youll See
Вверх

Dont Tell Me

D  A  C  G  (x 2)

D      A           C  G
Don?t tell me to stop
D          A           C  G
Tell the rain not to drop
D         A            C  G
Tell the wind not to blow
D    A  C  G
Cause you said so  Mm Mm

D         A           C  G
Tell the sun not to shine
D      A       C    G
Not to get up this time, no no
D       A           C  G
Let it fall by the way, but don?t
D          A      C   G
Leave me where I lay down

D  A  C  G  (x 2)

D    A    C         G
Tell me love isn?t true
D         A       C  G
It?s just something that we do
D    A  C               G
Tell me everything I?m not
D           A           C  G
But please don?t tell me to stop

D        A              C  G
Tell the leaves not to turn
D     A           C    G
But don?t ever tell me I?ll learn, no no
D         A           C   G
Take the black off a crow
D          A      C  G
But don?t tell me I have to go

D        A          C  G
Tell the bed not to lay
D     A          C      G
Like the open mouth of a grave, yeah
D        A         C  G
Not to stare up at me
D        A       C  G
Like a calf down on its knees

Tell me love isn?t true
It?s just something that we do
D    A  C               G
Tell me everything I?m not
D          A           C  G
But don?t ever tell me to stop

D    A  C           G
Don?t you ever tell me love isn?t true
D         A       C  G
It?s just something that we do
D    A  C               G
Tell me everything I?m not
D          A           C  G
But don?t ever tell me to stop

D  A  C  G  (x 4)

Don?t you ever
Please don?t
Please don?t
Please don?t tell me to stop
Don?t you ever Tell me
Ever
Don?t ever tell me to stop

D        A          C  G
Tell the bed not to lay
D     A          C      G
Like the open mouth of a grave, yeah
D        A         C  G
Not to stare up at me
D        A       C  G
Like a calf down on its knees

D  A  C  G  (x 10  fade out)

Вверх

Frozen

F#m
You only see what your eyes want to see
How can life be what you want it to be
D      E                     F#m
You're frozen when your heart's not open
F#m
You're so consumed with how much you get
You waste your time with hate and regret
D      E
You're frozen when your heart's not open

Chorus(I love this mmmm...)
F#m               D        Bm            A
Mmm-mm-mm..mmm-mm-mm... If I could melt your heart
F#m               D      G            A
Mmm-mm-mm..mmm-mm-mm... We'd never be apart
F#m               D      Bm             A
Mmm-mm-mm..mmm-mm-mm... Give yourself to me
F#m               D      G          A
Mmm-mm-mm..mmm-mm-mm... You are the key

Verse(same):

Now there's no point in placing the blame
And you should know I'd suffer the same
If I lose you, my heart would be broken
Love is a bird, she needs to fly
Let all the hurt inside you die
You're frozen when your heart's not open

Chorus(same)
Mmm-mm-mm... If I could melt your heart
Mmm-mm-mm... We'd never be apart
Mmm-mm-mm... Give yourself to me
Mmm-mm-mm... You are the key

Verse(same)
You only see what your eyes want to see
How can life be what you want it to be
You're frozen when your heart's not open

Chorus(same)
Mmm-mm-mm... If I could melt your heart
Mmm-mm-mm... We'd never be apart
Mmm-mm-mm... Give yourself to me
Mmm-mm-mm... You are the key
Mmm-mm-mm... If I could melt your heart
Mmm-mm-mm... We'd never be apart
Mmm-mm-mm... Give yourself to me
Mmm-mm-mm... You are the key
If I could melt your heart

Вверх

Hollywood

0:03

E|--------------------------------------|
B|--------3---------3-------0---------0-|
G|------4---------2---------------------|
D|----4---------0---------0---------2---|
A|--2---------0-------------------2-----|
E|----------------------3-------0-------|

2:58

E|--------------------------------------|
B|------5-------------------5---------2-|
G|--------6-------9---------------------|
D|----6---------9---9---------------4---|
A|--4---------7-----------7-------4-----|
E|----------------------5-------2-------|

E|------------------------------------------|
B|--------5-------------------5-------------|
G|----------6-------9-----------------------|
D|------6---------9---9---------------------|
A|--0-4---------7-----------7-------2-2h4p2-|
E|------------------------5-------2---------|

Вверх

One More Chance

Intro:

Fmaj7  C   Fsus4   C
e-------0----0-----1-----0---
B-------1----1--3--1--3--1--3
G---0-2-2----0-----3-----0---
D-4-----3----2-----3-----2---
A-------0----3-----1-----3---
E-------0----0-----1-----0---

Fmaj7  C   Fsus4   C
e-------0----0-----1-----0---
B---0-2-1----1--3--1--3--1--3
G-4-----2----0-----3-----0---
D-------3----2-----3-----2---
A-------0----3-----1-----3---
E-------0----0-----1-----0---


Am   C     F F F F
e-------0----0--1--1-
B---0-2-1----1-----1-
G-4-----2----0-----2-
D-------2----2-----3-
A-------0----3-----3-
E-------0----0-----1-

Fmaj7  C           Fsus4           C   Fmaj7
I turned around too late to see the fallen star
C             Fsus4             C
I fell asleep and never saw the sun go down
Dm                     Fsus4
I took your love for granted
C              F  Am  Dm
Thought luck was always on my side
Fsus4             F
I turned around too late and you were gone

Chorus:

B           C
So give me one more chance
Dm             C        F
Darlin? if you care for me
B        C
Let me win your love
Dm                      C       F
?Cause you were always there for me
B
If you care for me,
C
Be there for me

I like to play the queen of hearts and never thought I?d lose
I rolled the dice but never showed my hand
I planned it out so perfectly,
So you?d never leave a girl like me
I was a fool, but now I understand

(chorus)

H           C          D
Here is the law of the land
H             C        D
You play with fire and you?ll get burned
H           C           D
Here is the lesson I?ve learned
H           C          D
That you don?t know what you?ve got til it?s gone

(chorus, without last two lines)

Like a chorus:

Gimme one more chance
Tell me that it?s not too late
Let me win your love
Darlin? please don?t hesitate
If you care for me,
Be there for me

H    D
Give me one more chance

Вверх

Power Of Goodbye

                   Em    C              G  D
Your heart is not  open  so I   must    go
The spell has been broken...I loved you so
Em                     C
Freedom comes when you learn to let go
G                       D                C  Bm
Creation comes when you learn to say no

Em      C           G     D
You were my lesson   I had  to  learn
I was your  fortress you had to burn
Em                     C
Pain is a warning that something?s wrong
G                     D             C
I pray to God that it won?t be long
D
I wanna go higher

Em         C              G       D
There?s nothing    left to        try
There?s no place   left to        hide
Em         C              D       D    C   Bm
There?s no greater power than the power of goodbye

Em-C-G-D-C-Bm

Em     C             G    D
Your heart is not  open   so I must     go
The spell has been broken...I loved you so
Em                   C
You were my lesson I had to learn
G                       D           C  Bm
I was your fortress you had to burn

Em      C        G      D
There?s nothing left to  lose
There?s no more heart to bruise
Em         C              G       D    C   Bm
There?s no greater power than the power of goodbye

Em-C-G-D-C-Bm

Em    C  G   D   Em   C  G  D
Learn to say goodbye
I yearn to say goodbye

Вверх

Ray Of Light

Intro: (repeat 3x)

H                Cm
e--1--------1-------3--------3---
B-3------3-3-----3-4------4-4----
G--3--------3-------5--------5---
D-3------3-3-----3-5------5-5----

Dm               D#
e----5--------5-------6--------6------
B-4-6------6-6-----6-8------8-8-----8-
G----7--------7-------8--------8------
D-5-7------7-7-----7-8------8-8-----8-

Main:
H  Cm  Dm  D# - Repeat 2x

H             Cm             Dm
Zephyr in the sky at night I wonder
D#              H
Do my tears of mourning
Cm               Dm  D#
Sink beneath the sun
She?s got herself a universe
Gone quickly
For the call of thunder
Threatens everyone
And I feel
Like I just got home
And I feel
And I feel
Like I just got home
And I feel
Faster than the speeding light
She?s flying
Trying to remember
Where it all began
She?s got herself a little piece of heaven
Waiting for the time when
Earth shall be as one
And I feel
Like I just got home
And I feel
And I feel
Like I just got home
And I feel.
Quicker than a ray of light
Quicker than a ray of light
Quicker than a ray of light

(With intro theme):
Zephyr in the sky at night I wonder
Do my tears of mourning
Sink beneath the sun
She?s got herself a universe
Gone quickly
For the call of thunder
Threatens everyone

(With main theme):
And I feel
Quicker than a ray of light
Then gone for
Someone else shall he there...
She?s got herself a universe
She?s got herself a universe
She?s got herself a universe.
And I feel
And I feel
Like I just got home
And I feel
Quicker than a ray of light I?m flying

Вверх

Secret

   B  | Bsus4/Ab|  C# |  H
e--1--|----1----|--4--|--2--
B--3--|----4----|--6--|--4--
G--3--|----1----|--6--|--4--
D--3--|----3----|--6--|--4--
A--1--|----1----|--4--|--2--
E--1--|----1----|--4--|--2--

B  Bsus4/Ab  B

C#                 H
Things haven?t been the same
Bsus4/Ab   B
Since you came into my life
C#               H
You found a way to touch my soul
B                       Bsus4/Ab  B
And I?m never, ever, ever, gonna let it go

H          C#               H
Happiness lies in your own hand
C#               H             C#
It took me much too long to understand
H
How it could be
Bsus4/Ab  B
Until you shared your
H
Secret with me

Chorus:
C#                H
Something?s comin? over
C#       H
Mmm-mmm something?s comin? over
C#       H                       B
Mmm-mmm something?s comin? over me
C#
My baby?s got a secret

You gave me back the paradise
That I thought I lost for good
You helped me find the reason why
It took me by surprise that you understood
You knew all along
What I never wanted to say
Until I learned to love myself
I was never ever lovin? anybody else

Happiness lies in your own hand
It took me much too long to understand
How it could be
Until you shared your
Secret with me

Chorus

Вверх

Youll See

Intro

3:-10-12-10-10------------

Verse (Начинается с вокалом)

(You Thing That I Can?t Live...)
Fm Dm# E# E#
1:-1--6---8---8----
2:-1--6---9---9----
3:-1--8---10--10--- x2
4:-3--8---10--10---
5:-3--6---8---8----
6:-1--6---8---8----


(...You Think A Have Nothing...)

Cm# Dm# Cm E#
1:-4---6---3---8--
2:-4---6---3---9--
3:-6---8---5---10-
4:-6---8---5---10-
5:-4---6---3---8--
6:-4---6---3---8--


(...you?ll See, some How...)

Fm Cm# Cm#
1:--1--4--3-
2:--1--4--3-
3:--1--6--5-
4:--3--6--5-
5:--3--4--3-
6:--1--4--3-


Chorus (part 1)


Fm Cm# Dm# E# | Cm# Dm# Cm
1:--1-4---6---8-----4---6---3--
2:--1-4---6---9-----4---6---3--
3:--1-6---8---10----6---8---5--
4:--3-6---8---10----6---8---5--
5:--3-4---6---8-----4---6---3--
6:--1-4---6---8-----4---6---3--



Chorus (Continue)

(...All On My Own..)

Fm Cm# Dm# E# | Cm# Dm# C
1:--1--4--6---8-----4--6---8--
2:--1--4--6---9-----4--6---8--
3:--1--6--8---10----6--8---9--
4:--3--6--8---10----6--8---10-
5:--3--4--6---8-----4--6---10-
6:--1--4--6---8-----4--6---8--

Вверх