Marilyn Manson

Coma White
Fundamentally Loathsome
Great Big White World
I Dont Like The Drugs (But The Drugs Like Me)
In The Shadow Of The Valley Of Death
Last Day On Earth
Mechanical Animals
New Model No. 15
Rock Is Dead
Sweet Dreams
Terrible Lie
The Dope Show
The Last Day On Earth
The Nobodies
Working Class Hero
Вверх

Coma White

Verse (Guitar 1, acoustic)        three times then:
e-------------------------------------------------------
B------0------0------0------0-----0---0-----------------
G----4------4------4------4-----5---5-------------------
D--7------7------7------7-------------------------------
A-------------------------------------------------------
E-------------------------------------------------------

(continued)
e-------------------------------------------------------
B-------0-----0-----0-----0-----0-----0-----0-----0-----
G--5/7-----7-----7-----7-----5-----5-----4-----4--------
D-------------------------------------------------------
A-------------------------------------------------------
E-------------------------------------------------------

Pre-Chorus (Guitar 2)
e--------------17---19----20---20-----------------------
B--13--12----------------------x-----------------------
G------------------------------17-----------------------
D-------------------------------------------------------
A-------------------------------------------------------
E-------------------------------------------------------

Chorus A (Guitar 1)
e-------------------------------------------------------
B-------------------------------------------------------
G-2-------5---------------------------------------------
D-2-(x8)--5-(x8)--5-------5-53-3-3-3-3-3-3-------------
A-0-------3-------5-(x8)--5-53-3-3-3-3-3-3-------------
E-----------------3-------3-31-1-1-1-1-1-1-------------
("A pill to make you numb...")

Chorus B (Guitar 2, synthasizer arranged for guitar)
e---------12--10----12-----------12--10----12-----------
B--12---------------------12----------------------------
G-------------------------------------------------------
D-------------------------------------------------------
A-------------------------------------------------------
E-------------------------------------------------------

Post-Chorus A (Guitar 1)
e-------------------------------------------------------
B-------------------------------------------------------
G-----------5--7----------------5--7--------------------
D--7-7-7-7--5--7--x-x--6-6-6-6--5--7--x-x--7-7-7-7------
A--7-7-7-7--3--5--x-x--6-6-6-6--3--5--x-x--7-7-7-7------
E--5-5-5-5--------x-x--4-4-4-4--------x-x--5-5-5-5------

(continued)                    end on
e------------0-------------------|----------------------
B------------0-------------------|----------------------
G--7--5------2-------------------|----------------------
D--7--5------3---3-3-3-3-3-3-3---|---7------------------
A--5--3--0---3---3-3-3-3-3-3-3---|---7------------------
E--------0---1---1-1-1-1-1-1-1---|---5------------------


Post-Chorus B (Guitar 2)
e--17--17----15/17-----14--14--17--14--13--14--17-17p14-
B-------------x---------x---------------x---------------
G----14--14--12/14--12-11--------------10---------------
D-------------------------------------------------------
A-------------------------------------------------------
E-------------------------------------------------------

(continued)
e--17--17----15/17-----14--14--17--14--13---------------
B-------------x---------x---------------x---------------
G----14--14--12/14--12-11--------------10---------------
D------------------------------------------10h12--12h14-
A-------------------------------------------------------
E-------------------------------------------------------

Post-Chorus 2
e--17--17----15/17-----14--14--17--14--13--14--17-------
B-------------x---------x---------------x---------------
G----14--14--12/14--12-11--------------10---------------
D-------------------------------------------------10h12-
A-------------------------------------------------------
E-------------------------------------------------------

Riff
e-------------------------------------------------------
B-------------------------------------------------------
G--2-------0-------0------------------------------------
D--2-(x8)--2-(x8)--4-(x8)--3----------------------------
A--0-------3-------5-------3-(x8)-----------------------
E--------------------------1----------------------------

Outro 1                 three times then:
e----------------------------|--------------------------
B-----10--10-----------------|--------------------------
G------x---x-----------------|---7^---------------------
D--7---7---7---9--/10--9----|--------------------------
A----------------------------|--------------------------
E----------------------------|--------------------------

Outro 2
e-------------------------------------------------------
B-------------------------------------------------------
G-------------------------------------------------------
D--9--/10--9---7----5----------------------------------
A-------------------------------------------------------
E-------------------------------------------------------

Verse
Verse, Pre-Chorus
Chorus A,B
Post-Chorus A,B
Verse
Verse, Pre-Chorus
Chorus A,B
Post-Chorus A
Post-Chorus 2, B
Chorus B
Riff, Chorus B
Chorus A, B, Outro 1
Chorus A, B, Outro 2

Вверх

Fundamentally Loathsome

A5                        G5
I want to wake up in your white, white sun
A5                                 G5
I want to wake up in your world with no pain
A5                                G5
But I?ll just suffer in a hope to die someday
F#5           F5              E5
While you are numb all of the way

G5               B5
When you hate it you know you can feel but
G5       F#5                      B5  A5
When you love it you know it?s not real
A5
No
A5                G5
And I am resigned to this wicked fucking world
A5             G5
On its way to hell
A5
The living are dead and
G5
I hope to join them too
F#5           F5               E5
I know what to do and I di it well...

When you hate it you know you can feel but
When you love it you know it?s not real
No

B5             D5
Shoot myself to love you
If I loved myself I?d be shooting you

Вверх

Great Big White World

TUNING: standard tuning (E,A,D,G,B,E)


PART 1:

E|----------------------------------------|
B|----------------------------------------|
G|----------------------------------------|
D|--8/10---13--12~~~----8/10---13--12-10--|
A|----------------------------------------|
E|----------------------------------------|

PART 2:

E|------------------------------------------------|
B|------------------------------------------------|
G|------------------------------------------------|
D|--10-13-12-10-13-12-10-13-9-13-12-9-13-12-9-13--|
A|------------------------------------------------|
E|------------------------------------------------|

E|---------------------------------------------------|
B|---------------------------------------------------|
G|---------------------------------------------------|
D|-----13-12----13-12----13----13-12----13-12----13--|
A|--12-------12-------12----11-------11-------11-----|
E|---------------------------------------------------|

PART 3:

E|----------------------------------------------------|
B|----------------------------------------------------|
G|------------------------------------------------17--|
D|--10--13--15--15b--13--10--10--13--15--15u--13------|
A|----------------------------------------------------|
E|----------------------------------------------------|

PART 4: (I didn't write out the number of times to play each
note, you should be able to figure it out)

E|-------------------------------------|
B|-------------------------------------|
G|-------------------------------------|
D|--3----6-------10-----8-----6-----5--|
A|--3----6-------10-----8-----6-----5--|
E|--1----4-------8------6-----4-----3--|

PART 5:

E|-------------------------------------------------------|
B|-------------------------------------------------------|
G|-------------------------------------------------------|
D|--3---6----10---8----3---6-------10-----8-----6-----5--|
A|--3---6----10---8----3---6-------10-----8-----6-----5--|
E|--1---4----8----6----1---4-------8------6-----4-----3--|

Вверх

I Dont Like The Drugs (But The Drugs Like Me)

Intro
e--------------------------------------------------------
B--------------------------------------------------------
G--------------------------------------------------------
D-4-4------4-4----5-5------------------------------------
A-4-4------4-4----5-5------------------------------------
E-2-2------2-2----3-3------------------------------------
("I don?t like the drugs...")

Verse (Guitar 1, with effect)
e--------------------------------------------------------
B--------------------------------------------------------
G--------------------------------------------------------
D-2h4p2-2-4--2h4p2-2--2h4p2-2-4--4-6-7--2h4p2-2-4--------
A--------------------------------------------------------
E--------------------------------------------------------

(continued)
e-------------------/14-14-14-14-------------------------
B--------------------------------------------------------
G--------------------------------------------------------
D-2h4p2-2--2h4p2-4---------------------------------------
A--------------------------------------------------------
E--------------------------------------------------------

Pre-Chorus A (Guitar 1)                  end on
e---------------------------------------|----------------
B---------------------------------------|----------------
G-6--6--9-9-9--6-6-9--6-6-9---6--6------|----------------
D-6--6--9-9-9--6-6-9--6-6-9---6--6--2-3-|--4-------------
A-4--4--7-7-7--4-4-7--4-4-7---4--4--2-3-|--4-------------
E-----------------------------------0-1-|--2-------------
("You and I are...")

Pre-Chorus B (Guitar 2)
e--------------------------------------------------------
B-9^---12^---9^----------9^---12^---9^-------------------
G----------------11--9-----------------------------------
D---------------------------------------2--3-------------
A---------------------------------------2--3-------------
E---------------------------------------0--1-------------

Chorus
e--------------------------------------------------------
B--------------------------------------------------------
G-----------------2----2--4-------------------2----4--2--
D-4-4--4-4--4-4-4-2-2--2--4---4-4--4-4--4-4-4-2-2--4--2--
A-4-4--4-4--4-4-4-0-2--0--2---4-4--4-4--4-4-4-0-2--2--0--
E-2-2--2-2--0h2-2---0---------2-2--2-2--0h2-2---0--------
("I don?t like the drugs...")

Fill         Bridge (Bass)
e-------14^-|
B----14-----|
G-11--------|--------------------------------------------
D-----------|--------------------------------------------
A-----------|--------------------------------------------
E-----------|-8---6---6-6---6-6---6---5---5-5----5-5-----

Outro (Guitar 2)
e--------------------------------------------------------
B---------------------5-7^-----------------------5-7^----
G--------------------------------------------------------
D-4-4-/7^---4-4-/7^----------4-4-/7^---4-4-/7^-----------
A-4-4-/7^---4-4-/7^----------4-4-/7^---4-4-/7^-----------
E--------------------------------------------------------

(continued)
e---------------1312-----------------------------17^(x4)
B----------------------1312-----------------------------
G--------------------------------------------------------
D-4^---4^---4^----------------4^-x-x-4^-x-x-4^-x-x-------
A-4^---4^---4^----------------4^-x-x-4^-x-x-4^-x-x-------
E--------------------------------------------------------

Вверх

In The Shadow Of The Valley Of Death

E|-3--|
B|-3--|
G|-0--|
D|-5--|
A|-5--|
E|----|

Acoustic guitar intro :

[Verse 1]

(no lyrics -------------    -----    ---  --  -> )
Asus2           Amin           Asus2          Amin

We have no future, heaven wasn?t made for me
Asus2      Amin    Asus2                  Amin

We burn ourselves to hell, as fast as it can be
G                    Amin  G                 Amin

I wish that I could be a king
C           D            F

Then I?d know that I am not alone
C          (slide) D (let chord ring)

[Verse 2]

Maggots put on shirts(?), and sell eachother shit
Asus2          Amin         Asus2            Amin

Sometimes I feel so worthless, sometimes I feel discarded
G                   Amin       G                Amin

I wish that I was good enough
C           D          F

Then I?d know that I am not alone
C          (slide) D

These chords are then played for the rest of the song
in 4/4 time.

Amin
G
F
Emin

Lead parts played : (You can work out where they go ;)

Part A
(4 times)
E|--------------|
B|--------3-----|
G|-2----------5-|
D|--------------|

Part B
(2 times)
E|-----------------|
B|--3--------------|
G|---------2--4--2-|
D|-----------------|

Part C
(1 time)
B|---------3-|
G|-0---------|
D|----3------|

Part D
(2 times)
E|-------|
B|-------|
G|-4---2-|
D|-------|

Part C 1 time

Вверх

Last Day On Earth

Am       G            Fmaj7     G
Yesterday was a million years ago
Am         G               Fmaj7           Fmaj7
In all my past lives I played an asshole
Am          G              Fmaj7              G
Now I found you, its almost too late
Am          G        Fmaj7          Fmaj7
And this earth seems obliviating
Am           G          Fmaj7           G
We are trembling in our crutches
Am            G         Fmaj7      Fmaj7
High and dead our skin is glass
Am               G      Fmaj7              G
And Im so empty here without you
Am         G              Fmaj7
I crack my Xerox hands


Chorus

Hm         G           Em
I know its the last day on earth
Well be together while the planet dies
I know its the last day on earth
Dsus         Csus4          Hsus4
Well never say goodbye

Verse

And the dogs slaughter each other softly
Love burns its casualties
We are damaged provider modules
Spill the seeds at our childrens feet
And Im so empty here without you
I know they want me dead

Chorus

I know its the last day on earth
Well be together while the planet dies
I know its the last day on earth
Well never say goodbye


I know its the last day on earth
Well be together while the planet dies
I know its the last day on earth
Well never say goodbye



I know its the last day on earth
Well be together while the planet dies
I know its the last day on earth
Well never say goodbye
Well never say goodbye
(Do this last one slowing down)
Well never say goodbye.


Little solo:

|---7-----10--8--7--8-----7------------|
|-----8---------------------8----10----|
|-9---------------------9------------9-|
|--------------------------------------|
|--------------------------------------|
|--------------------------------------|

Вверх

Mechanical Animals

TUNING: standard tuning (E,A,D,G,B,E)


INTRO:

E|---------------------------------------|
B|---------------------------------------|
G|--7/9-9-9-9-9-9-9---14-14-14-14/16-16--|
D|--7/9-9-9-9-9-9-9----------------------|
A|--5/7-7-7-7-7-7-7---12-12-12-12/14-14--|
E|---------------------------------------|

2ND PART OF INTRO:

E|-----------------------------------|
B|-----------------------------------|
G|--5-5-5-5-5-5-5-5-7-7-7-7-7-7-7-7--|
D|--5-5-5-5-5-5-5-5-7-7-7-7-7-7-7-7--|
A|--3-3-3-3-3-3-3-3-5-5-5-5-5-5-5-5--|
E|-----------------------------------|

VERSE:

E|---------------|
B|---------------|
G|------9--------|
D|----9---9-7-9--|
A|--7------------|
E|---------------|

PRE-CHORUS: (each chord is played numerous times)

E|-------------------|
B|-------------------|
G|------5-------5-4--|
D|--5-4-5---5-4-5-4--|
A|--5-4-3---5-4-3-2--|
E|--3-2-----3-2------|

CHORUS:

E|-----------------------------------|
B|--------------8-8------------------|
G|--9-9-9-9-7-7-7-7-7-5-5-5-5-5-5-5--|
D|--9-9-9-9-7-7-7-7-7-5-5-5-5-5-5-5--|
A|--7-7-7-7-5-5-5-5-5-3-3-3-3-3-3-3--|
E|-----------------------------------|

OUTRO:

E|--------------------------------------------------------|
B|--------------------------------------------------------|
G|--9-9-12-12-9-7-9---9-9-12-12-9-7-9--12-12-12-12-12-10--|
D|--9-9-12-12-9-7-9---9-9-12-12-9-7-9--12-12-12-12-12-10--|
A|--7-7-10-10-7-5-7---7-7-10-10-7-5-7--10-10-10-10-10--8--|
E|--------------------------------------------------------|

Вверх

New Model No. 15

TUNING: standard tuning (E,A,D,G,B,E)

INTRO:

E|---------------------------------------------------|
B|---------------------------------------------------|
G|---------------------------------------------------|
D|---------------------------------------------------|
A|---------------------------------------------------|
E|--0-0-0-0-0-0-0-0-0-0-0-0-0-0-0-0-0-0-0-0-0--------|

MAIN RIFF/CHORUS:


E|-----------------------------------------------------------|
B|-----------------------------------------------------------|
G|-----------------------------------------------------------|
D|--4--4-2-4--4-2---4-4-2-4---4-2--4-4-2-4---4-2-4-4-2--777--|
A|--4--4-2-4--4-2---4-4-2-4---4-2--4-4-2-4---4-2-4-4-2--777--|
E|--2--2-0-2--2-0---2-2-0-2---2-0--2-2-0-2---2-0-2-2-0--555--|

1ST VERSE: (when he sings, don't play anything, but after that, you play this)

E|-----------------------------------------------------------|
B|-----------------------------------------------------------|
G|-----------------------------------------------------------|
D|--4--4-2-4--4-2---4-4-2-4---4-2--4-4-2-4---4-2-4-4-2--777--|
A|-----------------------------------------------------------|
E|-----------------------------------------------------------|

PRE-CHORUS RIFF:

E|--------------------|
B|--------------------|
G|--6----9----4----2--|
D|--6----9----4----2--|
A|--4----7----2----0--|
E|--------------------|

2ND VERSE: (in the middle you go something like this)

E|-------------------------|
B|---------------------15--|
G|--14~-11----14~-11-------|
D|-------------------------|
A|-------------------------|
E|-------------------------|

BRIDGE: (part where he sings "pitifully predictable..")

E|-----------------------------------------|
B|-----------------------------------------|
G|-----------------------------------------|
D|--9---7---9---5---7----------------------|
A|--9---7---9---5---7-----play it 2 times--|
E|--7---5---7---3---5----------------------|

INTERLUDE: (part where he sings "don't let them know how far you go..")

E|--------------------------------|
B|--------------------------------|
G|--------------------------------|
D|--4-4--------4-4----------------|
A|--4-4--------4-4---- etc. ------|
E|--2-2--------2-2----------------|

OUTRO:

E|----------------------|
B|----------------------|
G|----------------------|
D|-----------------4-4--|
A|-----------------4-4--|
E|--0000000000000--2-2--|

Вверх

Rock Is Dead
mp3

tuning : STANDARD (EADGBE)

Main Riff
~~~~~~~~~

|---------------------------------|
|---------------------------------|
|---------------------------------|
|-4-4-----4-4-----4-4-----4-4-7---|
|-4-4-----4-4-----4-4-----4-4-7---|
|-2-2-----2-2-----2-2-----2-2-5---|


Pre-chorus
~~~~~~~~~~

|---------------------------------|
|---------------------------------|
|---------------------------------|
|-7----10----12----7----10----12--|
|-7----10----12----7----10----12--|
|-5----8-----10----5----8-----10--|


Chorus
~~~~~~

|---------------------------------------------------|
|---------------------------------------------------|
|---11--9-11-9---11--9-11-9---9--7-9-7---9--7-9-7---|
|---11--9-11-9---11--9-11-9---9--7-9-7---9--7-9-7---|
|---9---7-9--7---9---7-9--7---7--5-7-5---7--5-7-5---|
|---------------------------------------------------|

|---------------------------------------------------|
|---------------------------------------------------|
|---7--6-7-6---7--6-7-6----6-6-6-6-6-6-9-9-9-9-9-9--|
|---7--6-7-6---7--6-7-6----6-6-6-6-6-6-9-9-9-9-9-9--|
|---5--4-5-4---5--4-5-4----4-4-4-4-4-4-7-7-7-7-7-7--|
|---------------------------------------------------|


Listen to the CD for the timing but the tune is right

Вверх

Sweet Dreams

В начале и в куплетах идёт:
E----------------------------------|
B----------------------------------|
G----------------------------------|
D-----5---6---5--------------------|
A-3-3---3---3---3-----6/8-----5/6--|
E-----------------4-4-----3-3------|

А это играется когда идёт:
"Some of them want to abuse you..."
E-----|
B-----|
G-----|
D-----|
A-10--|
E--8--|

"Some -- of -- them -- want -- to -- be -- a-bused..."
E-------------------------------------------------|
B-------------------------------------------------|
G-------------------------------------------------|
D-------------------------------------------------|
A-10----------------------------------6--------5--|
E--8----------------------------------4--------3--|


припев:
E--------------------------------------------------|
B--------------------------------------------------|
G-------------------------------5-5-5-5-5-5-5-5-5--|
D-6-6-6-6-6-6-6-6-6-6-6-6-6-5-5-5-5-5-5-5-5-5-5-5--|
A-6-6-6-6-6-6-6-6-6-6-6-6-6-5-5-3-3-3-3-3-3-3-3-3--|
E-4-4-4-4-4-4-4-4-4-4-4-4-4-3-3--------------------|

продолжение...
E--------------------------------------|
B--------------------------------------|
G--------------------------------------|
D-6-6-6-6-6-6-6-5-6-6-6-6-6-6-6-6-5-5--|
A-6-6-6-6-6-6-6-5-6-6-6-6-6-6-6-6-5-5--|
E-4-4-4-4-4-4-4-3-4-4-4-4-4-4-4-4-3-3--|


это играется после 2раза "some of them want to be abused..."
E---------------------------------------------------------|
B----------------------------------6^---------------------|
G-5-3-5-7^-5-3-5-7^-5-3-5-7^-5-3-5----5-3-5-7^-5-3-5-7^-5-|
D---------------------------------------------------------|
A---------------------------------------------------------|
E---------------------------------------------------------|

Solo--> "wah-wah":(после "Mov-in on!!...")
E-------11------8^---8^------------------------------------------------|
B-11-13----11--11---11----8^---------------------------------3h4-------|
G------------------------11----5-3-5-0^---0^---0^----5--3--5--------5--|
D------------------------------------4--4-4--4-4--4--------------3^----|
A----------------------------------------------------------------------|
E----------------------------------------------------------------------|


E---------------------------------------------14^-----|
B---3-3-4^----------7^-------13^--------16-16-16--13--|
G-5-----7--7-10-10-10--10-15-15---15-15---------------|
D-----------------------------------------------------|
A-----------------------------------------------------|
E-----------------------------------------------------|

в конце:
("...I got-ta know what?s in -- side -- you.")
E--------------------------------------------|
B--------------------------------------------|
G-----------------------------------------5--|
D---------------------------6-----5-------5--|
A---------------------------6-----5-------3--|
E---------------------------4-----3----------|

Вверх

Terrible Lie

      Em                             C
Hey god, why are you doing this to me?
G                        D            D+    D
am i not living up to what i?m supposed to be?
Em                           C
why am i seething with this animosity?
G                        D            D+ D
hey god, i think you owe me a great big apology
Em            C
terrible lie
G             D   D+ D
terrible lie
Em            C
terrible lie
G             D   D+  D
terrible lie

hey god, i really don?t know what you mean
seems like salvation comes only in our dreams
i feel my hatred grow all the more extreme
hey god, can this world really be as sad as it seems

Припев:

don?t take it away from me
i need someone to hold on to
don?t take it away from me
i need someone to hold on to

hey god, there?s nothing left for me to hide
i lost my ignorance, security and pride
i?m all alone in a world you must despise
hey god, i believed the promises, the promises and lies

Припев:

you made me throw it all away
my morals left to decay
how many you betray
you?ve taken everything

my head is filled with disease
my skin is begging you please
i?m on my hands and knees
i want so much to believe

Hey god
Hey god
Hey god


D+
E|-----------|-----------|-----0-----|
H|-----------|-----------|-----0-----|
G|-----------|-----0-----|-----------|
D|-----------|-----------|-----------|
A|-----------|-----------|-----------|
E|-----------|-----------|-----------|

«Ужасная ложь»

Эй Бог, почему ты скрываешь это от меня?
Я никогда не знал, какой ты наверху.
Почему я рожден с этой враждебностью?
Эй Бог, я думаю ты у меня в долгу.

Ужасная ложь…
Ужасная ложь…
Ужасная ложь…
Ужасная ложь…

Эй Бог, я действительно должен знать какой ты подлый,
Кажется спасение придет только в наших мечтах.
Я чувствую, что моя ненависть переходит через край,
Эй Бог, правда ли что этот мир такой как в наших снах?

Ужасная ложь…
Ужасная ложь…
Ужасная ложь…
Ужасная ложь…

Припев:

Не дай уйти этому прочь,
Я должен это удержать.
Не дай уйти этому прочь,
Я должен это удержать.

Эй Бог, слева от меня ничего не скрыть,
Я потерял свое невежество и гордость.
Я совсем одинок в этом мире и ты должен меня презирать.
Эй Бог, я верю в обещания, обещания и ложь

Ужасную ложь…
Ужасную ложь…
Ужасную ложь…
Ужасную ложь…

Ты сделал меня полным отбросом,
Моя мораль давно сгнила
Как много ты предавал меня,
Ты делаешь это каждый раз.

Моя голова давно сгнила,
Мой облик ты сделал как хотел
И я на своих руках и коленях
Хочу все больше верить.

Эй, Бог…
Эй, Бог…
Эй, Бог…

Вверх

The Dope Show
mp3

TUNING: standard tuning (E,A,D,G,B,E)


PART 1:

E|---------------------------------------------------------------------------|
B|---------------------------------------------------------------------------|
G|--9-9-9-9-9-9-9-9/12-12-12-12-12-12-12-12/7-7-7-7-7-7-7/5-5-5-5-5-5-5-5/4--|
D|--9-9-9-9-9-9-9-9/12-12-12-12-12-12-12-12/7-7-7-7-7-7-7/5-5-5-5-5-5-5-5/4--|
A|--7-7-7-7-7-7-7-7/10-10-10-10-10-10-10-10/5-5-5-5-5-5-5/3-3-3-3-3-3-3-3/2--|
E|-0-------------------------------------------------------------------------|

PART 2: (sounds like w/wah)

E|-------------------------------------|
B|-------------------------------------|
G|-------------------------------------|
D|-------------------------------------|
A|--7-7-7-7-5-7---7---7-7-7-7-5-7---7--|
E|--------------3-----------------3----|

PART 3:

E|-----------------------------------|
B|-----------------------------------|
G|--9-9-9-9-7-7-7-7-5-5-5-5----------|
D|--9-9-9-9-7-7-7-7-5-5-5-5-5-5-5-5--|
A|--7-7-7-7-5-5-5-5-3-3-3-3-5-5-5-5--|
E|--------------------------3-3-3-3--|

PART 4:

E|---------------------------|
B|---------------------------|
G|--------------7-7-5-5-5-4--|
D|--2-2-2-2-5-2-7-7-5-5-5-4--|
A|--2-2-2-2-5-2-5-5-3-3-3-2--|
E|--0-0-0-0-3-0--------------|

Вверх

The Last Day On Earth

Hm      G    Em
Hm      G    Em
Hm      G    Em
Dsus2   C    H

Am    G     C      G       Am
Yesterday was a million years ago
Am        G             Dsus2
In all my past lives I played an asshole
Now I found you, it?s almost too late
And this earth seems obliviating
We are trembling in our crutches
High and dead our skin is glass
I?m so empty here without you
I crack and split my xerox hands

Chorus:

Hm         G          Em
I know it?s the last day on Earth
Hm         G           Em
We?ll be together while the planet dies
Hm         G            Em       Dsus2
I know it?s the last day on Earth
C            H
We?ll never say goodbye

The dogs slaughter each other softly
Love burns it?s casualties
We are damaged provider modules
Spill the seeds at our children?s feet
I?m so empty here without you
I know they want me dead

Chorus:

Вверх

The Nobodies

Основная партия:

E |------------------|-------------------|-------------------|
B |----1---1---1---1-|-----1---1---1---1-|-----1-------1-----|
G |-2----2---2---2---|---2---2---2---2---|-------1-------1---|
D |------------------|-------------------|---2-----2-2-----2-|
A |--0---------------|-3-----------------|-------------------|
E |------------------|-------------------|-0-----------------|

E |---------------------|
B |-----1---1-----1---1-|
G |---2---2---2-----2---|
D |---------------------|
A |-0-------------------|
E |-------------3-------|

Припев:

E |-----------------|-----------------|
B |-----------------|-----------------|
G |-2-2-2-2-2-2-2-2-|-0-0-0-0-0-0-0-0-|
D |-2-2-2-2-2-2-2-2-|-1-1-1-1-1-1-1-1-|
A |-0-0-0-0-0-0-0-0-|-3-3-3-3-3-3-3-3-|
E |-----------------|-----------------|

E |-----------------|-----------------|
B |-----------------|-----------------|
G |-----------------|-2-2-2-2---------|
D |-2-2-2-2-2-2-2-2-|-2-2-2-2-0-0-0-0-|
A |-2-2-2-2-2-2-2-2-|-0-0-0-0-1-1-1-1-|
E |-0-0-0-0-0-0-0-0-|---------3-3-3-3-|

Переход(Some children died...):

E |-----------------|-----------------|
B |-----------------|-----------------|
G |-2-2-2-2-2-2-2-2-|-----------------|
D |-2-2-2-2-2-2-2-2-|-3-3-3-3-3-3-3-3-|
A |-0-0-0-0-0-0-0-0-|-3-3-3-3-3-3-3-3-|
E |-----------------|-1-1-1-1-1-1-1-1-|

Текст:

Today I?m dirty, I want to be pretty
Tomorrow, I know I?m just dirt
Today I?m dirty, I want to be pretty
Tomorrow, I know I?m just dirt
We are the nobodies
We wanna to be somebodies
When we?re dead.
They?ll know just who we are (2x)
Yesterday I was dirty, wanted to be pretty
I know now that I?m forever dirt
Yesterday I was dirty, wanted to be pretty
I know now that I?m forever dirt
We are the nobodies
We wanna to be somebodies
When we?re dead.
They?ll know just who we are

We are the nobodies
We wanna to be somebodies
When we?re dead.
They?ll know just who we are

Some children died the other day
We fed machines and then we pray
Puked up and down in morbid faith
You should have seen the ratings that day!

Вверх

Working Class Hero

Am-Amsus4-Am-Amsus4-Am-Amsus4-G-Am

Sunege your ball and make a few small
Given you no time stay with all.
To pain is so big you feel in nothing in all.

Am-G-D-Am

Working class hero in something be.
Working class hero in something be.

Hurt you an home and they hit you at school
Hate of your clever a dispose a fool.
Is so fucken crazy you can?t follows the roofs.

Working class hero in something be.
Working class hero in something be.

And touch you and scage you for twenty ideas.
And I expect you thinking go real.
You can really funk show an something a few.

Working class hero in something be.
Working class hero in something be.

Keep it all privileging your sexy TV.
And think your so clever and classis a  free.
Just still fucken passers and fuss I can?t see.

Working class hero in something be.
Working class hero in something be.

Вверх