Moby

Everloving
Porcelain
We Are All Made Of Stars
Why Does My Heart Feel So Bad
Вверх

Everloving

[INTRO]


Em
|------------------------------------------------|
|------------------------------------------------|
|---------------0--------------------0-----------|
|------2-----------2--------2-----------2--------|
|---------2-----------2--------2-----------2-----|
|-0----------0-----------0--------0-----------0--|

Em
|------------------------------------------------|
|------------------------------------------------|
|-0-------------0-----------0-----------0--------|
|------2-----------2-----------2-----------2-----|
|---------2-----------2-----------2-----------2--|
|------------0-----------0-----------0-----------|

C
|------------------------------------------------|
|------1--------------------1--------------------|
|---------0--------0-----------0--------0--------|
|------------0--------0-----------0--------0-----|
|-3-------------3--------3-----------3--------0--|
|------------------------------------------------|

G
|------------------------------------------------|
|---------------0-----------0--3-----------0-----|
|------------------0--------------0--------------|
|------0--------------0--------------0-----------|
|---------2--------------------------------------|
|-3----------3-----------3--------------3-----3--|



Em
|-----------------------------------------------|
|-----------------------------------------------|
|---------------0-------------0-----------------|
|------2-----------2-------------2--------2-----|
|---------2-----------2-------------2--------2--|
|-0----------0-----------0-------------0--------|

Em
|-------------------------------------------------|
|-------------------------------------------------|
|----0-----------0-----------0--------------------|
|-------2-----------2-----------2--------2--------|
|----------2-----------2-----------2--------2-----|
|-0-----------0-----------0-----------0--------0--|

C
|-------------------------------------------------|
|----------------1-----------1--------------------|
|-------0-----------0-----------0--------0--------|
|----------0-----------0-----------0--------0-----|
|-3-----------3-----------3-----------3--------0--|
|-------------------------------------------------|

G
|------------------------------------------------|
|---------------0--------------------0-----------|
|------------------0-----------------------0-----|
|------0--------------0-----0--------------------|
|---------2--------------------2--------------0--|
|-3----------3-----------3--------3-----3--------|



Am
|------------------------------------------------|
|---------------1--------------------1-----------|
|------2-----------2--------2-----------2--------|
|---------2-----------2--------2-----------2-----|
|-0----------0-----------0--------0-----------0--|
|------------------------------------------------|

Em
|---------------------------------------------|
|---------------------------------------------|
|---------------0--------------------0--------|
|------2-----------2--------2-----------2-----|
|---------2-----------2--------2-----------2--|
|-0----------0-----------0--------0-----------|

Em
|----------------------------------------------------|
|----------------------------------------------------|
|-------------0--------------------0-----------------|
|----2-----------2--------2-----------2--------2-----|
|-------2-----------2--------2-----------2--------2--|
|-0--------0-----------0--------0-----------0--------|


2x
D
|---------------2--------------------2-----------|
|------3-----------3--------3-----------3--------|
|---------2-----------2--------2-----------2-----|
|-0----------0-----------0--------0-----------0--|
|------------------------------------------------|
|------------------------------------------------|

Am
|------------------------------------------------|
|---------------1--------------------1-----------|
|------2-----------2--------2-----------2--------|
|---------2-----------2--------2-----------2-----|
|-0----------0-----------0--------0-----------0--|
|------------------------------------------------|

Em
|-----------------------------------------------|
|-----------------------------------------------|
|---------------0----------------------0--------|
|------2-----------2----------2-----------2-----|
|---------2-----------2----------2-----------2--|
|-0----------0-----------0----------0-----------|

Em
|-----------------------------------------------|
|-----------------------------------------------|
|---------------0-------------------0-----------|
|-------2----------2--------2----------2--------|
|----------2----------2--------2----------2-----|
|-0-----------0----------0--------0----------0--|



F
|---------------------------------------------|
|---------------------------------------------|
|---------------1--------------------1--------|
|------3-----------3--------3-----------3-----|
|---------3-----------3--------3-----------3--|
|-1----------1-----------1--------1-----------|

F
|----------------------------------------------------|
|----------------------------------------------------|
|-------------1--------------------1-----------------|
|----3-----------3--------3-----------3--------3-----|
|-------3-----------3--------3-----------3--------3--|
|-1--------1-----------1--------1-----------1--------|


[CORE]

[Em] [C] [G]
[Em] [C] [G] [Am] [Em]
2x [D] [Am] [Em]
2x [F] [Em]
4x [D] [Am] [Em]


[OUTRO]

Em
|-------------------------------------|
|-3-----------0-----------------------|
|----0-----------0--------0-----------|
|-------2-----------2--------2--------|
|----------2-----------2--------2-----|
|----------------------------------0--|

Em
|-------------------------------------------------|
|-------------------------------------------------|
|-------------0--------------------0--------------|
|----2-----------2--------2-----------2-----2-----|
|-------2-----------2--------2-----------------2--|
|-0--------0-----------0--------0--------0--------|

Em
|-------------------0----------------|
|------------------------------0-----|
|-----0------------------------------|
|--------2--------2---2-----2-----2--|
|-----------2------------------------|
|--0-----------0---------0-----------|

Em
|----------------------------------------------------|
|----------------------------0-----------0-----------|
|----------------0-----------------------------------|
|-------2-----------2-----------2-----------2--------|
|----2--------2--------2-----------2-----------2-----|
|-0--------0--------------0-----------0-----------0--|

Em
|--0-----------0--------0--------0-----------------|
|-----0-----------0-----------------0--------0-----|
|--------0--------------------------------------0--|
|-----------2-----------------2-----------2--------|
|--------------------2-----------------------------|
|--------------------------0-----------0-----------|

Вверх

Porcelain

   A                     Em       A Em
In my dreams im dying all the time
A                     Em     A Em
As i wake its kaleidoscopic mind
A                     Em
I never meant to hurt you
A                Em  A
I never meant to lie
Em              A
So this is goodbye
Em
This is goodbye
A                      Em      A Em
Tell the truth you never wanted me
A                      Em      A
Tell the truth you never wanted me
Em
Tell me
A                       Em       A Em
In my dreams im jealous all the time

As i wake im going out of my mind

Im going out of my mind

Going out of my mind

Вверх

We Are All Made Of Stars
mp3

Вступление: 2X
Time: 1/8

Am                  Em                    G
E|--------------------|-------------------|--------------------|
B|-1--------1--1----1-|-0----0--0-------0-|-0----0--0--------0-|
G|-2------2----2----2-|-0----0--0-----0---|-0----0--0------0---|
D|-2----2------2----2-|-2----2--2---2-----|-0----0--0----0-----|
A|-0--0--------0--0---|-------------------|--------------------|
E|--------------------|-0--0----0-0-------|-3--3----3--3-------|

D
E|-2-------2--------2-|
B|-3-------3------3---|
G|-2-------2----2-----|
D|-0-------0--0-------|
A|--------------------|
E|--------------------|

main:

E|-------------|-------------|--------------|-2-----2---2--2-|
B|-1---1---1-1-|-0---0---0-0-|-0---0---0--0-|-3-----3---3--3-|
G|-2---2---2-2-|-0---0---0-0-|-0---0---0--0-|-2-----2---2--2-|
D|-2---2---2-2-|-2---2---2-2-|-0---0---0--0-|-0--0----0----0-|
A|-0-0---0---0-|-------------|--------------|----------------|
E|-------------|-0-0---0---0-|-3-3---3----3-|----------------|

Вверх

Why Does My Heart Feel So Bad

   Am         Am         Em         Em
E|-0----------0----------0----------0---------|
B|-1-------1--1-------1--0-------0--0-------0-|
G|-2-2---2----2-----2----0-----0----0-----0---|
D|-2---2------2----------2----------2---2-----|
A|-0----------0----------2----------2---------|
E|-----------------------0----------0---------|
Why does my heart     Feel so bad

G          G          D          D
E|-3----------3----------2----------2-|
B|-0-------0--0-------0--3----------3-|
G|-0-----0----0-0---0----2----------2-|
D|-0----------0---0------0----------0-|
A|-2----------2-----------------------|
E|-3----------3-----------------------|
Why does my soul      Feel so bad

Вверх