Muse

Cave
Falling Down
Feeling Good
Fillip
Hate This & Ill Love You
Hyper Music
Map Of Your Head
Megalomania
Micro Cuts
Muscle Museum
Muscle Museum (2 вариант)
New Born
Plug In Baby
Plug In Baby (2 вариант)
Showbiz
Sober
Space Dementia
Sunburn
Time Is Running Out
Unintended
Unintended (2 вариант)
Uno
Вверх

Cave

Intro:
E|-------------|-------------|-------------|-------------|
B|-------------|-------------|-------------|-------------|
G|-----------7-|-----------7-|-----------7-|-----------7-|
D|-6-6-6-6-6---|-6-6-6-6-6---|-6-6-6-6-6---|-6-6-6-6-6---|
A|-------------|-------------|-------------|-------------|
E|-------------|-------------|-------------|-------------|

E|------------------|
B|-----------5b6r5--|
G|-----------------7|
D|-6-6-6-6-6--------|
A|------------------|
E|------------------|

E|-------------------|-------------------|---------------------|
B|-----------5b6r5---|-----------5b6r5---|-------------6-------|
G|-----------------7-|-----------------7-|-----------7---7-----|
D|-6-6-6-6-6---------|-6-6-6-6-6---------|-6-6-6-6-6-------5-7-|
A|-------------------|-------------------|---------------------|
E|-------------------|-------------------|---------------------|

E|-------------------|-------------------|---------------------|
B|------------6------|------------6------|-------------6-------|
G|----------7---7----|----------7---7----|-----------7---7-----|
D|6-6-6-6-6-------5-7|6-6-6-6-6-------5-7|-6-6-6-6-6-------5-7-|
A|-------------------|-------------------|---------------------|
E|-------------------|-------------------|---------------------|

E|---------------------|-------------------13----------|
B|-------------6-------|----------------15----15-------|
G|-----------7---7-----|-13-13-13-13-13----------12-14-|
D|-6-6-6-6-6-------5-7-|-------------------------------|
A|---------------------|-------------------------------|
E|---------------------|-------------------------------|

E|-------------------13----------|
B|----------------15----15-------|
G|-13-13-13-13-13----------12-14-|
D|-------------------------------|
A|-------------------------------|
E|-------------------------------|

E|-------------------13----------|
B|----------------------15-------|
G|-13-13----13-13----------12-14-|
D|-------12-------12-------------|
A|-------------------------------|
E|-------------------------------|

E|-------------------13----------|
B|----------------------15-------|
G|-13-13----13-13----------12-14-|
D|-------12-------12-------------|
A|-------------------------------|
E|-------------------------------|

Verse

E|----|
B|----|
G|----|
D|----|
A|-12-|
E|-10-|
Leave me alone... I?ll do it myself...

E|-----------|------------|------------------|-----------------|
B|-----------|------------|------------------|-----------------|
G|-----------|------------|------------------|-----------------|
D|-5-------5-|-5--------5-|-------5--------5-|-------5-------5-|
A|-----------|------------|------------------|-----------------|
E|-----------|------------|------------------|-----------------|
When thers?s nothing...

E|-------------------|-------------------|---------------------|
B|------------6------|------------6------|-------------6-------|
G|----------7---7----|----------7---7----|-----------7---7-----|
D|6-6-6-6-6-------5-7|6-6-6-6-6-------5-7|-6-6-6-6-6-------5-7-|
A|-------------------|-------------------|---------------------|
E|-------------------|-------------------|---------------------|

E|---------------------|---|
B|-------------6-------|---|
G|-----------7---7-----|---|
D|-6-6-6-6-6-------5-7-|-7-|
A|---------------------|-5-|
E|---------------------|---|
You can see it...

E|-----------|------------|------------------|-----------------|
B|-----------|------------|------------------|-----------------|
G|-----------|------------|------------------|-----------------|
D|-5-------5-|-5--------5-|-------5--------5-|-------5-------5-|
A|-----------|------------|------------------|-----------------|
E|-----------|------------|------------------|-----------------|
So come in my

Chorus

E|---------1-----|---------2-----|---------3-----|
B|-----3-------3-|-----3-------3-|-----3-------3-|
G|---2---2---2---|---2---2---2---|---3---3---3---|
D|-0-------------|-0-------------|---------------|
A|---------------|---------------|---------------|
E|---------------|---------------|-3-------------|
Cave...

E|---------3-----|
B|-----3-------3-|
G|---3---3---3---|
D|---------------|
A|---------------|
E|-3-------------|

E|---------1-----|---------2-----|---------3-----|
B|-----3-------3-|-----3-------3-|-----3-------3-|
G|---2---2---2---|---2---2---2---|---3---3---3---|
D|-0-------------|-0-------------|---------------|
A|---------------|---------------|---------------|
E|---------------|---------------|-3-------------|

E|---------3-----|
B|-----3-------3-|
G|---3---3---3---|
D|---------------|
A|---------------|
E|-3-------------|

E|---------1-----|---------2-----|---------3-----|
B|-----3-------3-|-----3-------3-|-----3-------3-|
G|---2---2---2---|---2---2---2---|---3---3---3---|
D|-0-------------|-0-------------|---------------|
A|---------------|---------------|---------------|
E|---------------|---------------|-3-------------|

E|---------3-----|
B|-----3-------3-|
G|---3---3---3---|
D|---------------|
A|---------------|
E|-3-------------|

E|---------1-----|---------2-----|---------3-----|
B|-----3-------3-|-----3-------3-|-----3-------3-|
G|---2---2---2---|---2---2---2---|---3---3---3---|
D|-0-------------|-0-------------|---------------|
A|---------------|---------------|---------------|
E|---------------|---------------|-3-------------|

E|---------3-----|
B|-----3-------3-|
G|---3---3---3---|
D|---------------|
A|---------------|
E|-3-------------|

E|---------------|---------------|---------------|
B|-----------5b6-|-----------5b6-|-----------5b6-|
G|---------------|---------------|---------------|
D|-6-6-6-6-6-----|-6-6-6-6-6-----|-6-6-6-6-6-----|
A|---------------|---------------|---------------|
E|---------------|---------------|---------------|

E|---------------------|
B|-------------6-------|
G|-----------7---7-----|
D|-6-6-6-6-6-------5-7-|
A|---------------------|
E|---------------------|

E|---------------------|---------------------|
B|-------------6-------|-------------6-------|
G|-----------7---7-----|-----------7---7-----|
D|-6-6-6-6-6-------5-7-|-6-6-6-6-6-------5-7-|
A|---------------------|---------------------|
E|---------------------|---------------------|

E|-------------------13---------|
B|----------------------15------|
G|-13-13----13-13----------12-14|
D|-------12-------12------------|
A|------------------------------|
E|------------------------------|

E|-------------------13----------|
B|----------------------15-------|
G|-13-13----13-13----------12-14-|
D|-------12-------12-------------|
A|-------------------------------|
E|-------------------------------|

Verse

E|---|
B|---|
G|---|
D|-7-|
A|-5-|
E|---|
Please hold your... So you?ll never...

E|-----------|------------|------------------|-----------------|
B|-----------|------------|------------------|-----------------|
G|-----------|------------|------------------|-----------------|
D|-5-------5-|-5--------5-|-------5--------5-|-------5-------5-|
A|-----------|------------|------------------|-----------------|
E|-----------|------------|------------------|-----------------|
And don?t ever...

E|------------------|------------------|------------------|
B|------------------|------------------|------------------|
G|------------------|------------------|------------------|
D|----10--------5-6-|-7-7-10-7-----5-6-|-7-7-10-7-----5-6-|
A|----8---7-6-7-3-4-|-5-5-8--5-6-7-3-4-|-5-5-8--5-6-7-3-4-|
E|--------5-4-5-----|----------4-5-----|----------4-5-----|

E|----------------------------|
B|----------------------------|
G|----------5h7-7-7-5h7-7-5h7-|
D|-7-7-10-7-------------------|
A|-5-5-8--5-------------------|
E|----------------------------|
Leave me alone...

E|-----------|------------|------------------|-----------------|
B|-----------|------------|------------------|-----------------|
G|-----------|------------|------------------|-----------------|
D|-5-------5-|-5--------5-|-------5--------5-|-------5-------5-|
A|-----------|------------|------------------|-----------------|
E|-----------|------------|------------------|-----------------|
So come in my

Chorus

E|---------1-----|---------2-----|---------3-----|
B|-----3-------3-|-----3-------3-|-----3-------3-|
G|---2---2---2---|---2---2---2---|---3---3---3---|
D|-0-------------|-0-------------|---------------|
A|---------------|---------------|---------------|
E|---------------|---------------|-3-------------|
Cave...
E|---------3-----|
B|-----3-------3-|
G|---3---3---3---|
D|---------------|
A|---------------|
E|-3-------------|

E|---------1-----|---------2-----|---------3-----|
B|-----3-------3-|-----3-------3-|-----3-------3-|
G|---2---2---2---|---2---2---2---|---3---3---3---|
D|-0-------------|-0-------------|---------------|
A|---------------|---------------|---------------|
E|---------------|---------------|-3-------------|

E|---------3-----|
B|-----3-------3-|
G|---3---3---3---|
D|---------------|
A|---------------|
E|-3-------------|

E|---------1-----|---------2-----|---------3-----|
B|-----3-------3-|-----3-------3-|-----3-------3-|
G|---2---2---2---|---2---2---2---|---3---3---3---|
D|-0-------------|-0-------------|---------------|
A|---------------|---------------|---------------|
E|---------------|---------------|-3-------------|

E|---------3-----|
B|-----3-------3-|
G|---3---3---3---|
D|---------------|
A|---------------|
E|-3-------------|

E|---------1-----|---------2-----|---------3-----|
B|-----3-------3-|-----3-------3-|-----3-------3-|
G|---2---2---2---|---2---2---2---|---3---3---3---|
D|-0-------------|-0-------------|---------------|
A|---------------|---------------|---------------|
E|---------------|---------------|-3-------------|

E|---------3-----|
B|-----3-------3-|
G|---3---3---3---|
D|---------------|
A|---------------|
E|-3-------------|

Interlude (wait a couple of bars)
The piano does the work here, so, relax.
E|--------0-|-----------|-------1-|-------------|
B|----3-----|-----------|---3-----|-------------|
G|--2---2---|-----------|-2---2---|-------------|
D|----------|-----------|---------|---ho hum...-|
A|----------|-----------|---------|-------------|
E|----------|-----------|---------|-------------|

Solo

E|---------------|------------------------------------|
B|-8b10-10r8-8-7-|------------------------------------|
G|---------------|-7-9p7-9p7-9b10-9b10-9b10-10-10r9-7-|
D|---------------|------------------------------------|
A|---------------|------------------------------------|
E|---------------|------------------------------------|

E|---------------------|
B|---------------------|
G|-7-9b11-11r9-7-6-5-4-|
D|------------7-7-7-7--|
A|---------------------|
E|---------------------|

E|------------5---|---------------|
B|--------------6-|-8b10-10r8-8-7-|
G|-42/4-4-4-4-----|---------------|
D|----------------|---------------|
A|----------------|---------------|
E|----------------|---------------|

E|------------------------------------|
B|------------------------------------|
G|-7-9p7-9p7-9b10-9b10-9b10-10-10r9-7-|
D|------------------------------------|
A|------------------------------------|
E|------------------------------------|

Second guitar comes in here.
E|--12-12b13-12b13-12b13-12b13-12b13r12-10|
B|----------------------------------------|
G|----------------------------------------|
D|----------------------------------------|
A|----------------------------------------|
E|----------------------------------------|

E|---------------------|-------------------|
B|---------------------|-------------------|
G|-7-9b11-11r9-7-6-5-4-|-4-4-4-4-4-4-4-4/7-|
D|------------7-7-7-7--|-------------------|
A|---------------------|-------------------|
E|---------------------|-------------------|

Вверх

Falling Down

Verse Riff
E|-----------------------------0---------------------------|
B|-----------------------3-------3-----3-----------------2-|
G|-6---6---6---6/7/6-------2-------2---2---4/5/4-2---2---2-|
D|-7-7---7-5---------5-4-----4-------4-3-3---------4---4-2-|
A|-7-------7-7-------7-----------------------------------0-|
E|---------------------------------------------------------|

E|-------0-----0---|
B|-2-----0---0---0-|
G|---2---1-1-------|
D|-----2-2---------|
A|-------2---------|
E|-------0---------|

E|-----------0-------|
B|-----3-------3---2-|
G|-1-----2-------2-2-|
D|---0-----0-------2-|
A|-----------------0-|
E|-------------------|

Chorus Riff
E|-2-2-2-2-2-2--1-1-1-1-1-1--0-0-0-0-0-0--4-4-4-4-4-4--|
B|-2-2-2-2-2-2--1-1-1-1-1-1--2-2-2-2-2-2--6-6-6-6-6-6--|
G|-2-2-2-2-2-2--2-2-2-2-2-2--2-2-2-2-2-2--6-6-6-6-6-6--|
D|-4-4-4-4-4-4--3-3-3-3-3-3--2-2-2-2-2-2--6-6-6-6-6-6--|
A|-4-4-4-4-4-4--3-3-3-3-3-3--0-0-0-0-0-0--4-4-4-4-4-4--|
E|-2-2-2-2-2-2--1-1-1-1-1-1---------------4-4-4-4-4-4--|

E|-5-5-5-5-5-5--6-6-6-6-6--6-7-7-7-7-7-7-7-|
B|-7-7-7-7-7-7--8-8-8-8-8--8-9-9-9-9-9-9-9-|
G|-7-7-7-7-7-7--8-8-8-8-8--8-9-9-9-9-9-9-9-|
D|-7-7-7-7-7-7--8-8-8-8-8--8-9-9-9-9-9-9-9-|
A|-5-5-5-5-5-5--6-6-6-6-6--6-7-7-7-7-7-7-7-|
E|-5-5-5-5-5-5--6-6-6-6-6--6-7-7-7-7-7-7-7-|

A    A7         D  Dm
I’m falling down
A            E
And fifteen thousand people scream
D       A
They were all begging for your dream
I’m falling down
Five thousand houses burning down (yeah)
No-one is gonna save this town

F#m
Too late
F                        A
I already found what I was looking for
C#7          D
You know it wasn’t here
B7    E7
No it wasn’t here

I was calling your name
But you would never hear me sing
You wouldn’t let me begin
So I’m crawling away
?Cause you broke my heart in two
No, I will not forget you

Too late
I already found what I was looking for
You know it wasn’t you
No, it wasn’t you
Noooooo

Falling away
You would never see me through
No, I could not forget you
Falling down
Five thousand house burning down
No-one is gonna save this town

Too late
I already found what I was looking for
You know it wasn’t you
No, it wasn’t you
No

Falling down
Now the world is upside down
I’m heading straight for the clouds

Вверх

Feeling Good
mp3

Внимание: Am/G-стандартный аккорд ля минор только с бассом соль
(3-ий лад 6-ая струна) F-здесь его лучше брать так-басс фа
(1-ый лад 6-ая струна) и ля (2-ой лад третья струна) Am и E
играть стандартно.

(Bricusse/Newley)

просто играйте по кругу эти четыре аккорда-Am Am/G F E

Am           Am/G F               G
Birds flying high you know how I feel
Sun in the sky you know how I feel
Reeds driftin? on by you know how I feel
It?s a new dawn it?s a new day it?s a new life for me
And i?m feeling good

Fish in the sea you know how I feel
River running free you know how I feel
Blossom in the tree you know how I feel
It?s a new dawn it?s a new day
It?s a new life for me
And I?m feeling good

Dragonfly out in the sun
You know what I mean, don?t you know
Butterflies all havin? fun
You know what I mean
Sleep in peace
When the day is done
And this old world is a new world and a bold world for me

Stars when you shine you know how I feel
Scent of the pine you know how I feel
Yeah freedom is mine and I know how I feel
It?s a new dawn it?s a new day it?s a new life for me

And I?m feeling good

Вверх

Fillip

E|-------------------------------------------------------------|
B|-0-8-8-8-8-8-----8-8-8-8-8-----8-8-8-8-8-----8-8-8-8-8-------|
G|-0-0-0-0-0-0-----0-0-0-0-0-----0-0-0-0-0-----0-0-0-0-0-------|
D|-0----------5-5-5---------5-5-5---------5-5-5----------5-5-5-|
A|-0----------5-5-5---------5-5-5---------5-5-5----------5-5-5-|
E|-0----------3-3-3---------3-3-3---------3-3-3----------3-3-3-|

E|-------------------------------------------------------------|
B|-12----------------------------------------------------------|
G|--0----------------------------------------------------------|
D|--0----------------------------------------------------------|
A|--x--x-x-x--x--x-x-x--x--x-x-x--x--x-x-x--x--x-x-x--x--x-x-x-|
E|-10-10-x-x-10-10-x-x-10-10-x-x-10-10-x-x-10-10-x-x-10-10-x-x-|

E|-----------------|
B|-----------------|
G|-----------------|
D|-----------------|
A|--x--x-x-x--x--x-|
E|-10-10-x-x-10-10-|

E|-------------------------------------------------------------|
B|-12----------------------------------------------------------|
G|--0----------------------------------------------------------|
D|--0----------------------------------------------------------|
A|--x--x-x-x--x--x-x-x--x--x-x-x--x--x-x-x--x--x-x-x--x--x-x-x-|
E|-10-10-x-x-10-10-x-x-10-10-x-x-10-10-x-x-10-10-x-x-10-10-x-x-|

E|-----------------|
B|-----------------|
G|-----------------|
D|-----------------|
A|--x--x-x-x--x--x-|
E|-10-10-x-x-10-10-|

E|---------------------------|
B|-12------------------------|
G|--0------------------------|
D|--0------------------------|
A|--x--x-x-x--x--x-x-x--x--x-|
E|-10-10-x-x-10-10-x-x-10-10-|

It's happening soon, It's happening soon, It's scent has been
blowing in my direction. To me it is new, To me it is new,
And it's not going to change for anybody.
E|-------------------------------------------|
B|-------------------------------------------|
G|-------------------------------------------|
D|-------------------------------------------|
A|-2-2-0-2-5-2-2-0-2-7-2-2-0-2-7-5-3-3-2-0-2-|
E|-------------------------------------------|

E|-------------------------------------------|
B|-------------------------------------------|
G|-------------------------------------------|
D|-------------------------------------------|
A|-2-2-0-2-5-2-2-0-2-7-2-2-0-2-7-5-3-3-2-0-2-|
E|-------------------------------------------|

And it's gonna be our last memory, And it's led me on, And on
to you.
E|-------------------------------------------------------------|
B|-------------------------------------------------------------|
G|-------------------------------------------------------------|
D|-5-5-5-5-5-5-5-5-5-5-5-5-5-5-5-2-2-2-2-2-2-2-2-2-2-2-2-2-2-2-|
A|-5-5-5-5-5-5-5-5-5-5-5-5-5-5-5-2-2-2-2-2-2-2-2-2-2-2-2-2-2-2-|
E|-3-3-3-3-3-3-3-2-2-2-2-2-2-2-2-0-0-0-0-0-0-0-0-0-0-0-0-0-0-0-|

E|-----------------------------2-2-2-2-2-2-2-2-2-2-2-2-2-2-2-2-|
B|-----------------------------2-2-2-2-2-2-2-2-2-2-2-2-2-2-2-2-|
G|-5-5-5-5-5-5-5-7-7-7-7-7-7-7-2-2-2-2-2-2-2-2-3-3-3-3-3-3-3-3-|
D|-5-5-5-5-5-5-5-7-7-7-7-7-7-7-4-4-4-4-4-4-4-4-4-4-4-4-4-4-4-4-|
A|-3-3-3-3-3-3-3-5-5-5-5-5-5-5-4-4-4-4-4-4-4-4-4-4-4-4-4-4-4-4-|
E|-----------------------------2-2-2-2-2-2-2-2-2-2-2-2-2-2-2-2-|

E|-------------------------------------------------------------|
B|-0-8-8-8-8-8-----8-8-8-8-8-----8-8-8-8-8-----8-8-8-8-8-------|
G|-0-0-0-0-0-0-----0-0-0-0-0-----0-0-0-0-0-----0-0-0-0-0-------|
D|-0----------5-5-5---------5-5-5---------5-5-5----------5-5-5-|
A|-0----------5-5-5---------5-5-5---------5-5-5----------5-5-5-|
E|-0----------3-3-3---------3-3-3---------3-3-3----------3-3-3-|

It's got to be here, It's got to be there, It's got to be now
Or I'll lose for ever.
This feeling is strange, This feeling is strange,
But it's not going to change for anybody.
E|-------------------------------------------|
G|-------------------------------------------|
B|-------------------------------------------|
D|-------------------------------------------|
A|-2-2-0-2-5-2-2-0-2-7-2-2-0-2-7-5-3-3-2-0-2-|
E|-------------------------------------------|

E|-------------------------------------------|
B|-------------------------------------------|
G|-------------------------------------------|
D|-------------------------------------------|
A|-2-2-0-2-5-2-2-0-2-7-2-2-0-2-7-5-3-3-2-0-2-|
E|-------------------------------------------|

And it's gonna be our last memory, And it's led me on, and on
to you.
E|-------------------------------------------------------------|
B|-------------------------------------------------------------|
G|-------------------------------------------------------------|
D|-5-5-5-5-5-5-5-5-5-5-5-5-5-5-5-2-2-2-2-2-2-2-2-2-2-2-2-2-2-2-|
A|-5-5-5-5-5-5-5-5-5-5-5-5-5-5-5-2-2-2-2-2-2-2-2-2-2-2-2-2-2-2-|
E|-3-3-3-3-3-3-3-2-2-2-2-2-2-2-2-0-0-0-0-0-0-0-0-0-0-0-0-0-0-0-|

E|---------------------------------2-2-2-2-2-2-2-2-2-2-2-2-2-2-|
B|---------------------------------2-2-2-2-2-2-2-2-2-2-2-2-2-2-|
G|-5-5-5-5-5-5-5-5-7-7-7-7-7-7-7-7-2-2-2-2-2-2-3-3-3-3-3-3-3-3-|
D|-5-5-5-5-5-5-5-5-7-7-7-7-7-7-7-7-4-4-4-4-4-4-4-4-4-4-4-4-4-4-|
A|-3-3-3-3-3-3-3-3-5-5-5-5-5-5-5-5-4-4-4-4-4-4-4-4-4-4-4-4-4-4-|
E|---------------------------------2-2-2-2-2-2-2-2-2-2-2-2-2-2-|

E|-2-2-2-2-2-2-2-2--2-2--2---2---2--2----2----2-|
B|-2-2-2-2-2-2-2-2--2-2--2---2---2--2----2----2-|
G|-4-4-4-4-4-4-4-4--3-3--3---3---3--3----3----3-|
D|-4-4-4-4-4-4-4-4--4-4--4---4---4--4----4----4-|
A|-4-4-4-4-4-4-4-4--4-4--4---4---4--4----4----4-|
E|-2-2-2-2-2-2-2-2--2-2--2---2---2--2----2----2-|

Accuse me, Trust me, I never knew, That you were the one,
you were the one, Oooh.
E|-3---------2----------------3-----------2-----1----0---1---0-|
B|-3---------2----------------3-----------2-----1----0---1---0-|
G|-3---------3----------------3-----------3-----1----1---1---0-|
D|-5---------4----------------5-----------4-----3----2---3---2-|
A|-5---------4----------------5-----------4-----3----2---3---2-|
E|-3---------2----------------3-----------2-----1----0---1---0-|

E|---------0---------------------------------------------------|
B|-----0-----0-----8-8-8-8-8-8-8-8-8-8-8-8-8-8-8-8-8-8-8-8-8-8-|
G|---0---0-----0---0-0-0-0-0-0-0-0-0-0-0-0-0-0-0-0-0-0-0-0-0-0-|
D|---------------2-2-2-2-2-2-2-2-2-2-2-2-2-2-2-2-2-2-2-2-2-2-2-|
A|-----------------2-2-2-2-2-2-2-2-2-2-2-2-2-2-2-2-2-2-2-2-2-2-|
E|-0---------------0-0-0-0-0-0-0-0-0-0-0-0-0-0-0-0-0-0-0-0-0-0-|

E|-------------------------------------------|
B|-------------------------------------------|
G|-------------------------------------------|
D|-------------------------------------------|
A|-2-2-0-2-5-2-2-0-2-7-2-2-0-2-7-5-3-3-2-0-2-|
E|-------------------------------------------|

And it's gonna be our last memory, And it's led me on, and on
to you.
E|-------------------------------------------------------------|
B|-------------------------------------------------------------|
G|-------------------------------------------------------------|
D|-5-5-5-5-5-5-5-5-5-5-5-5-5-5-5-5-2-2-2-2-2-2-2-2-2-2-2-2-2-2-|
A|-5-5-5-5-5-5-5-5-5-5-5-5-5-5-5-5-2-2-2-2-2-2-2-2-2-2-2-2-2-2-|
E|-3-3-3-3-3-3-3-3-2-2-2-2-2-2-2-2-0-0-0-0-0-0-0-0-0-0-0-0-0-0-|

E|-------------------------------0-0-0-0-0-0-0-0-0-0-0-0-0-0-0-|
B|-------------------------------0-0-0-0-0-0-0-0-0-0-0-0-0-0-0-|
G|-5-5-5-5-5-5-5-5-7-7-7-7-7-7-7-1-1-1-1-1-1-1-1-1-1-1-1-1-1-1-|
D|-5-5-5-5-5-5-5-5-7-7-7-7-7-7-7-2-2-2-2-2-2-2-2-2-2-2-2-2-2-2-|
A|-3-3-3-3-3-3-3-3-5-5-5-5-5-5-5-2-2-2-2-2-2-2-2-2-2-2-2-2-2-2-|
E|-------------------------------0-0-0-0-0-0-0-0-0-0-0-0-0-0-0-|

And it's gonna be our last memory, And it's led me on, and on
to you.
E|-------------------------------------------------------------|
B|-------------------------------------------------------------|
G|-------------------------------------------------------------|
D|-5-5-5-5-5-5-5-5-5-5-5-5-5-5-5-2-2-2-2-2-2-2-2-2-2-2-2-2-2-2-|
A|-5-5-5-5-5-5-5-5-5-5-5-5-5-5-5-2-2-2-2-2-2-2-2-2-2-2-2-2-2-2-|
E|-3-3-3-3-3-3-3-3-2-2-2-2-2-2-2-0-0-0-0-0-0-0-0-0-0-0-0-0-0-0-|

E|-------------------------------2-2-2-2-2-2-2-2-2-2-2-2-2-2-2-|
B|-------------------------------2-2-2-2-2-2-2-2-2-2-2-2-2-2-2-|
G|-5-5-5-5-5-5-5-7-7-7-7-7-7-7-7-2-2-2-2-2-2-2-2-3-3-3-3-3-3-3-|
D|-5-5-5-5-5-5-5-7-7-7-7-7-7-7-7-4-4-4-4-4-4-4-4-4-4-4-4-4-4-4-|
A|-3-3-3-3-3-3-3-5-5-5-5-5-5-5-5-4-4-4-4-4-4-4-4-4-4-4-4-4-4-4-|
E|-------------------------------2-2-2-2-2-2-2-2-2-2-2-2-2-2-2-|

You....
E|-2-2-2-2-2-2-2-2--2-2--2---2---2--2----2----2-|
B|-2-2-2-2-2-2-2-2--2-2--2---2---2--2----2----2-|
G|-4-4-4-4-4-4-4-4--3-3--3---3---3--3----3----3-|
D|-4-4-4-4-4-4-4-4--4-4--4---4---4--4----4----4-|
A|-4-4-4-4-4-4-4-4--4-4--4---4---4--4----4----4-|
E|-2-2-2-2-2-2-2-2--2-2--2---2---2--2----2----2-|

Вверх

Hate This & Ill Love You

Intro:

E|----------------------|--------------------|-----------------|
B|------------2---------|------------3-------|---------3-------|
G|--------2-------2-----|--------0------0----|------2-----2----|
D|----2---------------2-|----0-------------0-|---0-----------0-|
A|0---------------------|--------------------|-----------------|
E|----------------------|3-------------------|2----------------|
A G D/F#

E|-----------------|--------------------|----------------------|
B|---------3-------|------------2-------|------------3---------|
G|------2-----2----|--------2------2----|--------0-------0-----|
D|---0-----------0-|----2-------------2-|----0---------------0-|
A|-----------------|0-------------------|----------------------|
E|2----------------|--------------------|3---------------------|
A G

E|------------3---------|------------3---------|
B|--------2-------2-----|--------2-------2-----|
G|----3---------------3-|----3---------------3-|
D|0---------------------|0---------------------|
A|----------------------|----------------------|
E|----------------------|----------------------|

1st Verse:

E|-----------------|--------------------|----------------------|
B|---------2-------|----------3---------|------------2---------|
G|------2-----2----|------0-------0-----|--------3-------3-----|
D|---2-----------2-|---0--------------0-|----0---------------0-|
A|0----------------|--------------------|----------------------|
E|-----------------|3-------------------|2---------------------|
A G D/F

E|------------------|--------------------|---------------------|
B|---------2--------|---------2----------|-----------3---------|
G|------3-------3---|------2-------2-----|-------0-------0-----|
D|---0--------0---0-|---2--------2---2p0-|---0---------------0-|
A|------------------|0-------------------|---------------------|
E|2-----------------|--------------------|3--------------------|
A G

E|---------2-------|---------2-----2----|----------------------|
B|------3-----3----|------3------3---3--|------------2---------|
G|---2-----------2-|---2---------------2|--------2-------2-----|
D|0----------------|0-------------------|----2---------------2-|
A|-----------------|--------------------|0---------------------|
E|-----------------|--------------------|----------------------|
D A

E|3------3---3--------|--------------------|-------------------|
B|-----3---3----------|-------3---3--------|-------3---3-------|
G|---0------------0---|-----2---2------2---|-----2---2-----2---|
D|--------------0---0-|---0----------0---0-|---0---------0---0-|
A|--------------------|--------------------|-------------------|
E|3-------------------|2-------------------|2------------------|
G D/F#

E|----------------------|-----------3--------|---------2-------|
B|-------2---2----------|-------3------3-----|------3-----3----|
G|-----2---2------2-----|-----0---0------0---|---2-----------2-|
D|---2----------2---2p0-|---0--------------0-|0----------------|
A|0---------------------|--------------------|-----------------|
E|----------------------|3-------------------|-----------------|
A G D

E|3---3-3-3-3-3-3-3-3-3-3-|
B|2---2-2-2-2-2-2-2-2-2-2-|
G|3---3-3-3-3-3-3-3-3-3-3-|
D|0---0-----0-----0-----0-|
A|------------------------|
E|------------------------|


1st Chorus:

Em         Bm          F#
E|0-0-0-0----------0-|2--2-2-2----------2-|2--2-2-2----------2-|
B|0-0-0-0----------0-|3--3-3-3-3--3--3--3-|2--2-2-2----------2-|
G|0-0-0-0-0--0--0--0-|4--4-4-4-4--4--4--4-|3--3-3-3-3--3--3--3-|
D|2-2-2-2-2--2--2--2-|4--4-4-4-4--4--4--4-|4--4-4-4-4--4--4--4-|
A|2-------2--2--2--2-|2--------2--2--2--2-|4--------4--4--4--4-|
E|0-------0--0--0--0-|--------------------|2--------2--2--2--2-|

Em Bm F#
E|0---0-0-0-----0---0---0-|2---2-2-2-------------2-|2--|
B|0---0-0-0-----0---0---0-|2---2-2-2-------------2-|3--|
G|0---0-0-0-0---0---0---0-|3---3-3-3-3---3---3---3-|4--|
D|2---2-2-2-2---2---2---2-|4---4-4-4-4---4---4---4-|4--|
A|2---------2---2---2---2-|4---------4---4---4---4-|2--|
E|0---------0---0---0---0-|2---------2---2---2---2-|---|

2nd Verse:

E|-----------------|--------------------|--------2---2---------|
B|---------2-------|-------3---3--------|------3---3-----------|
G|------2-----2----|-----0---0------0---|----2-------------2---|
D|---2-----------2-|---0----------0---0-|----------------0---0-|
A|0----------------|--------------------|----------------------|
E|-----------------|3-------------------|2---------------------|
A G D/F#

E|--------------------|---------------------|------------------|
B|-------3---3--------|-------2---2---------|------3---3-------|
G|-----2---2------2---|-----2---2-----2-----|----0---0-----0---|
D|---0----------0---0-|---2---------2---2p0-|--0---------0---0-|
A|--------------------|0--------------------|------------------|
E|2-------------------|---------------------|3-----------------|
A G

E|--------2---2-------|---------2---2-----|--------------------|
B|------3---3-----3---|------3----3---3---|------2---2---------|
G|----2---------2---2-|---2-------------2-|----2---2-----2-----|
D|0-------------------|0------------------|--2---------2---2p0-|
A|--------------------|-------------------|0-------------------|
E|--------------------|-------------------|--------------------|
D A

E|--------------------|-------------------|--------------------|
B|--------3---3-------|------3---3--------|-------3---3--------|
G|------0---0-----0---|----2---2------2---|-----2---2------2---|
D|----0---------0---0-|--0----------0---0-|---0----------0---0-|
A|--------------------|-------------------|--------------------|
E|3-------------------|2------------------|2-------------------|
G D/F#

E|---------------------|--------------------|---------2--------|
B|-------2---2---------|-------3---3--------|------3-----3-----|
G|-----2---2-----2-----|-----0---0------0---|---2------------2-|
D|---2---------2---2p0-|---0----------0---0-|0-----------------|
A|0--------------------|--------------------|------------------|
E|---------------------|3-------------------|------------------|
A G D

E|3---3-3-3-3-3-3-3-3-3-3-|
B|2---2-2-2-2-2-2-2-2-2-2-|
G|3---3-3-3-3-3-3-3-3-3-3-|
D|0---0-----0-----0-----0-|
A|------------------------|
E|------------------------|

2nd Chorus:

E|0--0-0-0----------0|2--2-2-2----------2-|------------------2-|
B|0--0-0-0----------0|3--3-3-3-3--3--3--3-|0--0-0-0-0--0--2--2-|
G|0--0-0-0-0--0--0--0|4--4-4-4-4--4--4--4-|3--3-3-3-3--3--3--3-|
D|2--2-2-2-2--2--2--2|4--4-4-4-4--4--4--4-|4--4-4-4-4--4--4--4-|
A|2--------2--2--2--2|2--------2--2--2--2-|4--------4--4--4--4-|
E|0--------0--0--0--0|--------------------|---------------2--2-|
Em Bm F#

E|0-0-0-0----0--0--0-|2--2-2-2----------2-|2--2-2-2----------2-|
B|0-0-0-0----0--0--0-|2--2-2-2----------2-|3--3-3-3-3--3--3--3-|
G|0-0-0-0-0--0--0--0-|3--3-3-3-3--3--3--3-|4--4-4-4-4--4--4--4-|
D|2-2-2-2-2--2--2--2-|4--4-4-4-4--4--4--4-|4--4-4-4-4--4--4--4-|
A|2-------2--2--2--2-|4--------4--4--4--4-|2--------2--2--2--2-|
E|0-------0--0--0--0-|2--------2--2--2--2-|--------------------|

E|------------------|--------------------|---------------------|
B|----------3--3--3-|---------3--3--3--3-|---------3--3--3-3-3-|
G|4-4-4-4-4-4--4--4-|---4-4-4-4--4--4--4-|---0-0-0-0--0--0-0-0-|
D|4-4-4-4-4-4--4--4-|---4-4-4-4--4--4--4-|0--0-0-0-0--0--0-0-0-|
A|0-0-0-0-0-0--0--0-|--------------------|2--2-2-2-2--2--2-2-2-|
E|------------------|4-------------------|3-----------3--3-3-3-|
Bm/A Bm/Ab G

E|0-------0-0-0-0-0-|3----------3--3-3-3-|0--------0--0--0-0-0-|
B|0-------0-0-0-0-0-|3----------3--3-3-3-|0--------0--0--0-0-0-|
G|0-0-0-0-0-0-0-0-0-|0-0-0-0-0--0--0-0-0-|0--0-0-0-0--0--0-0-0-|
D|2-2-2-2-2-2-2-2-2-|0-0-0-0-0--0--0-0-0-|2--2-2-2-2--2--2-2-2-|
A|2-2-2-2-2-2-2-2-2-|2-2-2-2-2--2--2-2-2-|2--2-2-2-2--2--2-2-2-|
E|0-------0-0-0-0-0-|3-------3--3--3-3-3-|0--------0--0--0-0-0-|
Em G Em

E|2---------2---2---2---2-|
B|2---------2---2---2---2-|
G|3---3-3-3-3---3---3---3-|
D|4---4-4-4-4---4---4---4-|
A|4---4-4-4-4---4---4---4-|
E|2---------2---2---2---2-|
F#

Middle Section:

E|-----------------|--------------------|----------------------|
B|---------3-------|-----------3--------|------------0---------|
G|------4-----4----|-----4---4----4-----|------4---4-----4-----|
D|---4-----------4-|---4---4----------4-|----4---4-----------4-|
A|2----------------|0-------------------|----------------------|
E|-----------------|--------------------|4---------------------|
Bm Bm/A Bm/Ab

E|---------------------|---------------------|---------3-------|
B|------------0--------|------------0--------|-----------------|
G|------4---4---4------|--------0-------0----|------0-----0----|
D|----4---4----------4-|----2--------------2-|---0-----------0-|
A|---------------------|---------------------|-----------------|
E|3--------------------|0--------------------|3----------------|
Bm/G Em G

E|-----------------|--------------------|----------------------|
B|---------0-------|----------2---------|------------3---------|
G|------0-----0----|------3-------3-----|--------4-------4-----|
D|---2-----------0-|---4--------------4-|----4---------------4-|
A|-----------------|--------------------|2---------------------|
E|0----------------|2-------------------|----------------------|
Em F# Bm

E|-----------------|--------------------|----------------------|
B|---------3-------|----------3---------|------------3---------|
G|------4-----4----|------0-------0-----|--------2-------2-----|
D|---4-----------4-|---0--------------0-|----0---------------0-|
A|0----------------|--------------------|----------------------|
E|-----------------|3-------------------|2---------------------|
Bm/A G D/F#

E|-----------------|--------------------|----------2-----------|
B|---------2-------|----------3---------|------3-------3-----3-|
G|------2-----2----|------0-------0-----|---2--------------2---|
D|---2-----------2-|---0--------------0-|0---------------------|
A|0----------------|--------------------|----------------------|
E|-----------------|3-------------------|----------------------|
A G D

E|------------2---------|
B|--------3-------3-----|
G|----2---------------2-|
D|0---------------------|
A|----------------------|
E|----------------------|

Instrumental:

E|-----------------|---------------------|-------2---2---------|
B|---------2-------|-------3---3---------|-----3---3-----------|
G|------2-----2----|-----0---0-------0---|---2-------------2---|
D|---2-----------2-|---0-----------0---0-|---------------0---0-|
A|0----------------|---------------------|---------------------|
E|-----------------|3--------------------|2--------------------|
A G D/F#

E|-------------------|---------------------|-------------------|
B|-------3---3-------|-------2---2---------|-------3---3-------|
G|-----2---2-----2---|-----2---2-----2-----|-----0---0-----0---|
D|---0---------0---0-|---2---------2---2p0-|---0---------0---0-|
A|-------------------|0--------------------|-------------------|
E|2------------------|---------------------|3------------------|
A G

E|--------2---2-------|-------2----2-----|---------------------|
B|-----3----3-----3---|----3-----3---3---|-------2---2---------|
G|---2----------2---2-|--2-------------2-|-----2---2-----2-----|
D|0-------------------|0-----------------|---2---------2---2p0-|
A|--------------------|------------------|0--------------------|
E|--------------------|------------------|---------------------|
D A

E|------------------|-------------------|----------------------|
B|------3---3-------|------3---3--------|--------3---3---------|
G|----0---0-----0---|----2---2------2---|------2---2-------2---|
D|--0---------0---0-|--0----------0---0-|----0-----------0---0-|
A|------------------|-------------------|----------------------|
E|3-----------------|2------------------|2---------------------|
G D/F#

E|--------------------|--------------------|---------2---------|
B|------2---2---------|------3---3---------|------3------3-----|
G|----2---2-----2-----|----0---0-------0---|---2-------------2-|
D|--2---------2---2p0-|--0-----------0---0-|0------------------|
A|0-------------------|--------------------|-------------------|
E|--------------------|3-------------------|-------------------|
A G D

E|3---3-3-3-3-3-3-3-3-3-3-|
B|2---2-2-2-2-2-2-2-2-2-2-|
G|3---3-3-3-3-3-3-3-3-3-3-|
D|0---0-----0-----0-----0-|
A|------------------------|
E|------------------------|

E|0-0-0-0----------0-|2--2-2-2----------2-|------------------2-|
B|0-0-0-0----------0-|3--3-3-3-3--3--3--3-|0--0-0-0-0--0--2--2-|
G|0-0-0-0-0--0--0--0-|4--4-4-4-4--4--4--4-|3--3-3-3-3--3--3--3-|
D|2-2-2-2-2--2--2--2-|4--4-4-4-4--4--4--4-|4--4-4-4-4--4--4--4-|
A|2-------2--2--2--2-|2--------2--2--2--2-|4--------4--4--4--4-|
E|0-------0--0--0--0-|--------------------|---------------2--2-|
A Bm F#

E|0-0-0-0---0--------|2--2-2-2----------2-|2--2-2-2----------2-|
B|0-0-0-0---0--------|2--2-2-2----------2-|3--3-3-3-3--3--3--3-|
G|0-0-0-0-0-0--------|3--3-3-3-3--3--3--3-|4--4-4-4-4--4--4--4-|
D|2-2-2-2-2-2--------|4--4-4-4-4--4--4--4-|4--4-4-4-4--4--4--4-|
A|2-------2-2--2-2---|4--------4--4--4--4-|2--------2--2--2--2-|
E|0-------0-0--0-0-1-|2--------2--2--2--2-|--------------------|

E|-------------------|--------------------|--------------------|
B|-----------3--3--3-|--------3--3--3---3-|---------3-3--3-3-3-|
G|4-4-4-4-4--4--4--4-|--4-4-4-4--4--4---4-|---0-0-0-0-0--0-0-0-|
D|4-4-4-4-4--4--4--4-|--4-4-4-4--4--4---4-|0--0-0-0-0-0--0-0-0-|
A|0-0-0-0-0--0--0--0-|--------------------|2--2-2-2-2-2--2-2-2-|
E|-------------------|4-------------------|3----------3--3-3-3-|
Bm/A Bm/Ab G

E|0-------0-0--0-0-0-|3----------3--3-3-3-|0-------0--0--0-0-0-|
B|0-------0-0--0-0-0-|3----------3--3-3-3-|0-------0--0--0-0-0-|
G|0-0-0-0-0-0--0-0-0-|0--0-0-0-0-0--0-0-0-|0-0-0-0-0--0--0-0-0-|
D|2-2-2-2-2-2--2-2-2-|0--0-0-0-0-0--0-0-0-|2-2-2-2-2--2--2-2-2-|
A|2-2-2-2-2-2--2-2-2-|2--2-2-2-2-2--2-2-2-|2-2-2-2-2--2--2-2-2-|
E|0-------0-0--0-0-0-|3--------3-3--3-3-3-|0-------0--0--0-0-0-|
Em G Em

E|2---------2---2---2---2-|
B|2---------2---2---2---2-|
G|3---3-3-3-3---3---3---3-|
D|4---4-4-4-4---4---4---4-|
A|4---4-4-4-4---4---4---4-|
E|2---------2---2---2---2-|
F#

E|2-------2-2-2-2-2-|--------------------|---------------3-3-3-|
B|3-3-3-3-3-3-3-3-3-|3-------3--3--3-3-3-|3--------3--3--3-3-3-|
G|4-4-4-4-4-4-4-4-4-|4-4-4-4-4--4--4-4-4-|0--0-0-0-0--0--0-0-0-|
D|4-4-4-4-4-4-4-4-4-|4-4-4-4-4--4--4-4-4-|0--0-0-0-0--0--0-0-0-|
A|2-------2-2-2-2-2-|0-------0--0--0-0-0-|2--2-2-2-2--2--2-2-2-|
E|------------------|--------------------|3--------3--3--3-3-3-|
Bm Bm/A G

E|-------------3-3-3-|0--------0--0--0--0-|--------------------|
B|2-------2-2--2-2-2-|2--2-2-2-2--2--2--2-|3--------3--3--3--3-|
G|3-3-3-3-3-3--3-3-3-|2--2-2-2-2--2--2--2-|0--0-0-0-0--0--0--0-|
D|0-0-0-0-0-0--0-0-0-|2--2-2-2-2--2--2--2-|0--0-0-0-0--0--0--0-|
A|0-0-0-0-0-0--0-0-0-|0--------0--0--0--0-|2--2-2-2-2--2--2--2-|
E|2-------2-2--2-2-2-|--------------------|3--------3--3--3--3-|
D/F# A G

E|2-----------2---------|------------2---------|
B|3---------3-----3-----|--------3-------3-----|
G|2-------2-----------2-|----2---------------2-|
D|0-----0---------------|0---------------------|
A|----------------------|----------------------|
E|----------------------|----------------------|

Ending:

E|-----------------|--------------------|----------------------|
B|---------2-------|---------3----------|------------3---------|
G|------2-----2----|------0-----0-------|--------2-------2-----|
D|---2-----------2-|---0------------0---|----0---------------0-|
A|0----------------|--------------------|----------------------|
E|-----------------|3-------------------|2---------------------|
A G D/F#

E|----------------|---------------------|----------------------|
B|--------3-------|---------2-----------|------------3---------|
G|-----2-----2----|------2------2-------|--------0-------0-----|
D|--0-----------0-|---2-------------2---|----0---------------0-|
A|----------------|0--------------------|----------------------|
E|2---------------|---------------------|3---------------------|
A G

E|------------3-----------|---|
B|--------2-------2-------|---|
G|----3---------------3---|-3-|
D|0-----------------------|-0-|
A|------------------------|---|
E|------------------------|---|

Вверх

Hyper Music
mp3

E|------------------|
B|----6----6--------|
G|----5----5--5-4-3-|
D|----4----4--------|
A|-5--5--5-5--------|
E|-0-----0----------|

E|------------------------------------|
B|----6----6------------6----6--------|
G|----5----5------------5----5--------|
D|----4----4------------4----4--------|
A|-5--5--5-5----3-5--5--5--5-5--3-2-1-|
E|-0-----0----5------0-----0----------|

E|-10-10-10-10-10-10-10-10-10-10-10-10-10-10-10-10-|
B|-10-10-10-10-10-10-10-10-10-10-10-10-10-10-10-10-|
G|-10-10-10-10-10-10-10-10-10-10-10-10-10-10-10-10-|
D|-12-12-12-12-12-12-12-12-12-12-12-12-12-12-12-12-|
A|-------------------------------------------------|
E|-------------------------------------------------|

E|-12-12-12-12-12-12-12-12-12-12-12-12-12-12-12-12-|
B|-13-13-13-13-13-13-13-13-13-13-13-13-13-13-13-13-|
G|-14-14-14-14-14-14-14-14-14-14-14-14-14-14-14-14-|
D|-------------------------------------------------|
A|-------------------------------------------------|
E|-------------------------------------------------|

E|-10-10-10-10-10-10-10-10-10-10-10-10-10-10-10-10-|
B|-12-12-12-12-12-12-12-12-12-12-12-12-12-12-12-12-|
G|-12-12-12-12-12-12-12-12-12-12-12-12-12-12-12-12-|
D|-------------------------------------------------|
A|-------------------------------------------------|
E|-------------------------------------------------|

E|-10-10-10-10-10-10-10-10-10-10-10-10-10-10-10-10-|
B|-11-11-11-11-11-11-11-11-11-11-11-11-11-11-11-11-|
G|-12-12-12-12-12-12-12-12-12-12-12-12-12-12-12-12-|
D|-------------------------------------------------|
A|-------------------------------------------------|
E|-------------------------------------------------|

Вверх

Map Of Your Head

A               D          A
I?m sick of feeling my soul
D            A
Some people who?ll never know
E            F#m         D
Just how purposely and empty they grow
A                  D          A
Because their language confuses
D         A             E
Like computers refuse to understand
F#m       D
How I?m feeling today

Chorus:
A     D         A        D
I?m fre-e-ezing and losing my way
A         E          F#m          D
I don?t need another map of your head

I?m freezing and losing my way
I don?t need another map of your head

Whhhoooahhhh oohhhh

I saw a liquid controlled
That gives life to a soul
I hit my head on it
And woke up to know
That I was all alone
Wearing just socks and a phone
Someone?s screaming
Like their world might explode

Yeah I?m freezing and losing my way
I don?t need another map of your head
I?m freezing and losing my way
I don?t want another map of your head
Whoaaaaaaaahhhh

I?m freezing and losing my way
I don?t need another map of your head
I?m freezing and losing my way
I don?t want another map of your head
Yeah

Вверх

Megalomania
mp3

Intro: Em and B7 alternately

Verse 1

B7 Em B7 Em F#
paradise comes at a price
Am B7
that I am not prepared to pay
Em C G Am G
what were we built for?
G#m Am B7
could someone tell me please

Verse 2:Same chords as 1st verse

the good news is, she can?t have babies
and wont accept gifts from me
what are they for?
they?ll just grow up, and break the laws you?ve loved

Pre Chorus:
D B7

Chorus
C D G B7 C
take off your disguise
B7 Am B7
I know that underneath it?s me


Verse 3:Same as other verses

useless device, it wont suffice
I want a new game to play
when I am gone
it wont be long, before I disturb you in the dark

Verse 4:Slight variation at "What were we built..."

paradise comes at a price
that I am not prepared to pay
what were we built for?
will someone tell me please

Chorus same as before

take off your disguise
I know that underneath it?s me

Вверх

Micro Cuts
mp3

Make sure the low E is tuned down to D

Intro and Verse

e|-------------10----------|
B|-------10-------10----10-|
G|----10----10-------10----| x 9
D|-12----------------------|
A|-------------------------|
D|-------------------------|

e|-------------10-------------------10----------10----------10-|
B|-------11-------11----11-------10----------10----------11----|
G|----12----12-------12-------10----------11----------12-------|
D|-14----------------------12----------12----------12----------|
A|-------------------------------------------------------------|
D|-------------------------------------------------------------|

E|----------|
B|-11----11-|
G|----12----|
D|----------|
A|----------|
E|----------|

e|-------------10----------------------10----------------------|
B|-------11-------11----11-------10-------10----10-------10----|
G|----12----12-------12-------10----10-------10-------10----10-|
D|-12----------------------12----------------------12----------|
A|-------------------------------------------------------------|
D|-------------------------------------------------------------|

E|-10----------|
B|----10----10-|
G|-------10----|
D|-------------|
A|-------------|
E|-------------|

e|-------------12----------------------12----------------------|
B|-------10-------10----10-------10-------10----12-------10----|
G|----12----12-------12-------12----12-------12-------10----10-|
D|-11----------------------11----------------------12----------|
A|-------------------------------------------------------------|
D|-------------------------------------------------------------|

E|-10----------|
B|----10----10-|
G|-------10----|
D|-------------|
A|-------------|
E|-------------|

REPEAT THIS PATTERN THROUGH VERSE

hands are red with your blame
megaphone screaming my name
whimpers someone I should?ve loved
souls weeping above

Chorus
Gm D Gm Gm D Gm
I?ve seeeeeeen what you?re doing to me
D Gm G#m7
destroying puppet strings
A
to our souls

VERSE
micro waves me insane
a blane cuts in your brain
sounds like forks on a plate
blackboard scratched with hate

CHORUS
I?ve seen what you?re doing to me
destroying puppet strings
to our souls

SOLO

e|------------------------------------------------------|
B|------------------------------------------------------|
G|-10--9---7---6---4---6---7---9---10---11---12---10--9-|
D|-x---x---x---x---x---x---x---x---x----x-----x---x---x-|
A|-8---7---5---4---2---4---5---7---8----9----10---8---7-|
D|------------------------------------------------------|

e|----------|---------------------------------|
B|----------|---------------------------------|
G|-10-9-7-6-|---------------------------------|
D|-x--x-x-x-|---------------------------------| Repeat this riff
A|-8--7-5-4-|-5-4-3-0-----------------0---3-4-| til the end
D|----------|---------6-5-3-0-3-0-5-7---0-----|

Вверх

Muscle Museum

Intro:Am Dm Am Dm Am F E7

Am      Dm              Am
She had something to confess to
Dm                     Am
But you don?t have the time so
F            E7
Look the other way
Am       Dm             Am
You will wait until it?s over
Dm                         Am
To reveal what you?d never shown her
F              E7
Too little much too late

Am Dm Am Dm Am F E7

Am       Dm          Am
Too long trying to resist it
Dm                   Am
You?ve just gone and missed it
F               E7
It?s escaped your world

F F F# F#

Припев:

C       Dm            C
Can you see that i am needing
Dm                 C
And begging for so much more
F                 E7
Than you could ever give
C           Dm          C
And I don?t want you to adore me
Dm                C
Don?t want you to ignore me
F              E7
When it pleases you
F          E7
Yeah i?ll do it on my own


Am Dm Am Dm Am F E7


I have played in every toilet
But you still want to spoil it
To prove i?ve made a big mistake
Too long trying to resist it
You?ve just gone and missed it
It?s escaped your world

Припев

Вверх

Muscle Museum (2 вариант)

E|-------------------------------------------------------------|
B|-10-10-10-10-10-10-10-10-14-14-14-12-12-12-10-10-10-10-10-10-|
G|-11-11-11-11-11-11-11-11-11-11-11-11-11-11-11-11-11-11-11-11-|
D|-------------------------------------------------------------|
A|-------------------------------------------------------------|
E|-------------------------------------------------------------|

E|--------------|
B|---9--9--9--9-|
G|--10-10-10-10-|
D|--------------|
A|--------------|
E|--------------|

E|---------------------------------------------------|
B|-12-12-12-10-10-10--9--9--9--9--9--9--10-10-10-10--|
G|-10-10-10-10-10-10-10-10-10-10-10-10--11-11-11-11--|
D|---------------------------------------------------|
A|---------------------------------------------------|
E|---------------------------------------------------|

E|-------------------------|
B|-14-14-14-14-14-14-14-14-|
G|-11-11-11-15-15-15-15-15-|
D|-------------------------|
A|-------------------------|
E|-------------------------|

E|----------------------------|
B|-15-15-15-15-15-15-15-15-15-|
G|-16-16-16-16-16-16-16-16-16-|
D|----------------------------|
A|----------------------------|
E|----------------------------|

E|-------------------------------------------------------------|
B|-10-10-10-10-10-10-10-10-14-14-14-12-12-12-10-10-10-10-10-10-|
G|-11-11-11-11-11-11-11-11-11-11-11-11-11-11-11-11-11-11-11-11-|
D|-------------------------------------------------------------|
A|-------------------------------------------------------------|
E|-------------------------------------------------------------|

E|-------------|
B|--9--9--9--9-|
G|-10-10-10-10-|
D|-------------|
A|-------------|
E|-------------|

E|------------------------------------------------------------|
B|-12-12-12-10-10-10--9--9--9--9--9--9--10-10-10-10--14-14-14-|
G|-10-10-10-10-10-10-10-10-10-10-10-10--11-11-11-11--11-11-11-|
D|------------------------------------------------------------|
A|------------------------------------------------------------|
E|------------------------------------------------------------|

E|----------------|
B|-14-14-14-14-14-|
G|-15-15-15-15-15-|
D|----------------|
A|----------------|
E|----------------|

E|----------------------------|
B|-15-15-15-15-15-15-15-15-15-|
G|-16-16-16-16-16-16-16-16-16-|
D|----------------------------|
A|----------------------------|
E|----------------------------|

She had something to confess to
But you don’t have the time so look the other way
You will wait until its over
To reveal what you’ve never shown her
Too little much to late

E|------------------------------------------------------------|
B|------------------------------------------------------------|
G|-----2-2-----2-2-----2-2-----2-2-1-1-----1-1-----1-1----1-1-|
D|-4-4-----4-4-----4-4-----4-4---------3-3-----3-3-----3-3----|
A|------------------------------------------------------------|
E|------------------------------------------------------------|

E|-----|
B|-----|
G|-----|
D|-3-3-|
A|-----|
E|-----|

E|---------------------------------|
B|---------------------------------|
G|-6-6-7-7---------6-6-7-7---------|
D|---------9-9-4-4---------9-9-4-4-|
A|---------------------------------|
E|---------------------------------|

E|------------------------------------------------------------|
B|------------------------------------------------------------|
G|-----2-2-----2-2-----2-2-----2-2-1-1-----1-1-----1-1----1-1-|
D|-4-4-----4-4-----4-4-----4-4---------3-3-----3-3-----3-3----|
A|------------------------------------------------------------|
E|------------------------------------------------------------|

E|-----|
B|-----|
G|-----|
D|-3-3-|
A|-----|
E|-----|

E|---------------------------------|
B|---------------------------------|
G|-6-6-7-7---------6-6-7-7---------|
D|---------9-9-4-4---------9-9-4-4-|
A|---------------------------------|
E|---------------------------------|

Too long trying to resist it
You’ve just gone and missed it
It?s escaped your world

E|-2-2-2-5-2--2--5-2--2--------------4-4-4--4-1---1---4-1---1-|
B|-2-2-2----2--2----2---2------------6-6-6------2---2-----2---|
G|-2-2-2-----------------------------6-6-6--------------------|
D|-4-4-4-----------------------------6-6-6--------------------|
A|-4-4-4-----------------------------4-4-4--------------------|
E|-2-2-2-----------------------------4-4-4--------------------|

E|-5-5-5-5-5-5-5-5-5-5-5-5-5-5-5-5-5-5-5-5-5-5-5-5-5-5-5-5-5-5-|
B|-7-7-7-7-7-7-7-7-7-7-7-7-7-7-7-7-7-7-7-7-7-7-7-7-7-7-7-7-7-7-|
G|-7-7-7-7-7-7-7-7-7-7-7-7-7-7-7-7-7-7-7-7-7-7-7-7-7-7-7-7-7-7-|
D|-7-7-7-7-7-7-7-7-7-7-7-7-7-7-7-7-7-7-7-7-7-7-7-7-7-7-7-7-7-7-|
A|-5-5-5-5-5-5-5-5-5-5-5-5-5-5-5-5-5-5-5-5-5-5-5-5-5-5-5-5-5-5-|
E|-------------------------------------------------------------|

E|-5-5-|
B|-7-7-|
G|-7-7-|
D|-7-7-|
A|-5-5-|
E|-----|

Can you feel that I have needed...........
E|------------------------------------------------------------|
B|----2-------2-------6-------6-------2-------2-------3---3-2-|
G|---2--2---2---2---6---6---6---6---2---2---2---2---4---4-----|
D|------------------------------------------------------------|
A|----------------4-------4-----------------------2-----------|
E|-2------2-----------------------2-------2-------------------|

E|-----|
B|-----|
G|-4---|
D|---4-|
A|-----|
E|-----|

E|------------------------------------------------------------|
B|----2-------2-------6-------6-------2-------2-------3---3-2-|
G|---2--2---2---2---6---6---6---6---2---2---2---2---4---4-----|
D|------------------------------------------------------------|
A|----------------4-------4-----------------------2-----------|
E|-2------2-----------------------2-------2-------------------|

E|-----|
B|-----|
G|-4---|
D|---4-|
A|-----|
E|-----|

I’ll do it on my own

E|-0-0-0-0-0-0-0-0--4-4-4-4-4-4-4-4|-2-|
B|-0-0-0-0-0-0-0-0--6-6-6-6-6-6-6-6|-2-|
G|-1-1-1-1-1-1-1-1--6-6-6-6-6-6-6-6|-2-|
D|-2-2-2-2-2-2-2-2--6-6-6-6-6-6-6-6|-4-|
A|-2-2-2-2-2-2-2-2--4-4-4-4-4-4-4-4|-4-|
E|-0-0-0-0-0-0-0-0--4-4-4-4-4-4-4-4|-2-|

E|-----------------------------------------------------------|
B|-10-10-10-10-10-10-10-10--14-14-14-12-12-12-10-10-10-10-10-|
G|-11-11-11-11-11-11-11-11--11-11-11-11-11-11-11-11-11-11-11-|
D|-----------------------------------------------------------|
A|-----------------------------------------------------------|
E|-----------------------------------------------------------|

E|-----------------|
B|-10---9--9--9--9-|
G|-11--10-10-10-10-|
D|-----------------|
A|-----------------|
E|-----------------|

E|------------------------------------------------------------|
B|-12-12-12-10-10-10--9--9--9--9--9--9--10-10-10-10--14-14-14-|
G|-10-10-10-10-10-10-10-10-10-10-10-10--11-11-11-11--11-11-11-|
D|------------------------------------------------------------|
A|------------------------------------------------------------|
E|------------------------------------------------------------|

E|----------------|
B|-14-14-14-14-14-|
G|-15-15-15-15-15-|
D|----------------|
A|----------------|
E|----------------|

E|----------------------------|
B|-15-15-15-15-15-15-15-15-15-|
G|-16-16-16-16-16-16-16-16-16-|
D|----------------------------|
A|----------------------------|
E|----------------------------|
Too long trying to resist it
You’ve just gone and missed it
It?s escaped your world

E|-------------------------------------------------------------|
B|-----2-2-----2-2-----2-2-----2-2-1-1-----1-1-----1-1----1-1--|
G|-4-4-----4-4-----4-4-----4-4---------3-3-----3-3-----3-3----3|
D|-------------------------------------------------------------|
A|-------------------------------------------------------------|
E|-------------------------------------------------------------|

E|---|
B|---|
G|-3-|
D|---|
A|---|
E|---|

E|---------------------------------|
B|---------------------------------|
G|-6-6-7-7---------6-6-7-7---------|
D|---------9-9-4-4---------9-9-4-4-|
A|---------------------------------|
E|---------------------------------|

E|-2-2-2-5-2--2--5-2--2--------------4-4-4--4-1--------------|
B|-2-2-2----2--2----2---2------------6-6-6------2---6/7/6--2-|
G|-2-2-2-----------------------------6-6-6-------------------|
D|-4-4-4-----------------------------6-6-6-------------------|
A|-4-4-4-----------------------------4-4-4-------------------|
E|-2-2-2-----------------------------4-4-4-------------------|

E|-5-5-5-5-5-5-5-5-5-5-5-5-5-5-5-5-5-5-5-5-5-5-5-5-5-5-5-5-5-5-|
B|-7-7-7-7-7-7-7-7-7-7-7-7-7-7-7-7-7-7-7-7-7-7-7-7-7-7-7-7-7-7-|
G|-7-7-7-7-7-7-7-7-7-7-7-7-7-7-7-7-7-7-7-7-7-7-7-7-7-7-7-7-7-7-|
D|-7-7-7-7-7-7-7-7-7-7-7-7-7-7-7-7-7-7-7-7-7-7-7-7-7-7-7-7-7-7-|
A|-5-5-5-5-5-5-5-5-5-5-5-5-5-5-5-5-5-5-5-5-5-5-5-5-5-5-5-5-5-5-|
E|-------------------------------------------------------------|

Can you feel that I have needed

E|------------------------------------------|
B|----2-------2-------6-------6-------2-----|
G|---2--2---2---2---6---6---6---6---2---2---|
D|------------------------------------------|
A|----------------4-------4-----------------|
E|-2------2-----------------------2-------2-|

E|-----------------------|
B|---2-------3---3-2-----|
G|-2---2---4---4-----4---|
D|---------------------4-|
A|-------2---------------|
E|-----------------------|

E|------------------------------------------|
B|----2-------2-------6-------6-------2-----|
G|---2--2---2---2---6---6---6---6---2---2---|
D|------------------------------------------|
A|----------------4-------4-----------------|
E|-2------2-----------------------2-------2-|

E|-----------------------|
B|---2-------3---3-2-----|
G|-2---2---4---4-----4---|
D|---------------------4-|
A|-------2---------------|
E|-----------------------|

Solos...

Вверх

New Born
mp3

Riff 1 :
(В оригинале играется на пианино)

E-|------7-------7-------7-------7---|-----7-------7-------7-------7---|
B-|----8---8---8---8---7---7---7---7-|---8---8---8---8---7---7---7---7-|
G-|--9-------9-------8-------8-------|-9-------9-------8-------8-------|
D-|----------------------------------|---------------------------------|
A-|----------------------------------|---------------------------------|
D-|----------------------------------|---------------------------------|

E-|------7-------7-------8-------8---|-----7-------7-------7-------7---|
B-|----8---8---8---8---8---8---8---8-|---8---8---8---8---7---7---7---7-|
G-|--9-------9-------9-------9-------|-7-------7-------8-------8-------|
D-|----------------------------------|---------------------------------|
A-|----------------------------------|---------------------------------|
D-|----------------------------------|---------------------------------|


Riff 2:

E-|------7-------7-------7-------7---|-----7-------7-------7-------7---|
B-|----8---8---8---8---7---7---7---7-|---8---8---8---8---7---7---7---7-|
G-|--9-------9-------8-------8-------|-9-------9-------8-------8-------|
D-|----------------------------------|---------------------------------|
A-|----------------------------------|---------------------------------|
D-|----------------------------------|---------------------------------|

E-|------7-------7-------8-------8---|-----7-------7---7-|
B-|----8---8---8---8---8---8---8---8-|---8---8---8---8-7-|
G-|--9-------9-------9-------9-------|-7-------7-------8-|
D-|----------------------------------|-------------------|
A-|----------------------------------|-------------------|
D-|----------------------------------|-------------------|


Riff 3:

E-|-----------------------------------------------------------------------|
B-|-----------------------------------------------------------------------|
G-|-----------------------------------------------------------------------|
D-|-----------------------------------------------------------------------|
A-|---------------------------------------------------------------2-2-2-2-|
D-|--2-2-2-2-5-2-5-6-7-7-7-7-10-7-10-11-12-0-0-12-0-0-3-4-5-5-5-5---------|

E-|--0-------------------------------|-------------------|
B-|--1-------------------------------|-------------------|
G-|--0--------------3----------------|--4--------------4-|
D-|--2--------------3----------------|--4--------------4-|
A-|--3--------------1----------------|--2--------------2-|
D-|----------------------------------|-------------------|

Riff 4:
(Вообще-то на басу, но можно и на гитаре)

E-|----------------------------------|
B-|----------------------------------|
G-|----------------------------------|
D-|----------------------------------|
A-|------0-2-----0-2----0-2-----0-2--|
D-|--2-2-----2-2-----2-2----2-2------|



Riff 5:

E-|----------------------------------|----------------------------------|
B-|----------------------------------|----------1-1-1-1-----------------|
G-|----------4-4-4-4---------4-4-4-4-|----------0-0-0-0-4-4-4-4-4-4-4-4-|
D-|--2-2-2-2-4-4-4-4-2-2-2-2-4-4-4-4-|--2-2-2-2-2-2-2-2-4-4-4-4-4-4-4-4-|
A-|--2-2-2-2-2-2-2-2-2-2-2-2-2-2-2-2-|--2-2-2-2-3-3-3-3-2-2-2-2-2-2-2-2-|
D-|--2-2-2-2---------2-2-2-2---------|--2-2-2-2-------------------------|



Riff 6:

E-|--0-------0-------0---------------|---------------------------------|
B-|--0-------1-------3-------0-------|--1------------------------------|
G-|--0-------2-------2-------0-------|--0--------3------4-------4------|
D-|--2-------2-------0-------5-------|--2--------3------4-------4------|
A-|--2-------0---------------5-------|--3--------1------2-------2------|
D-|--2-----------------------5-------|---------------------------------|


Solo:

E-|-----------------------------------------------------------------------|
B-|--12-8-5-8-12-7-4-7-12-8-5-8-12-7-4-7-12-8-12-13-8-5-13-12-7-4------5--|
G-|-----------------------------------------------------------------------|
D-|-----------------------------------------------------------------------|
A-|-----------------------------------------------------------------------|
D-|-----------------------------------------------------------------------|

Структура песни такая::

Intro: Riff 1 x2
Verse 1: Riff 1, Riff 2
Bridge 1: Riff 3 x3
Verse 2: Riff 4 x2, Riff 5 x2
Chorus 1: Riff 6 x2
Solo
Verse 3: riff 5 x2
Chorus 2: riff 6 x2
Outro: Riff 3 x3

Да, самая низкая (толстая) струна настроена как D, это не опечатка.=)

Еще я нашел табы дя баса на одном сайте, привожу как нашел:

Bass:Dropped D Tuning

Riff 1

G|----9--------9-----
D|------7-9------7-9- X 5
A|--7--------7-------
D|-------------------

Then


G|----5--------5--------4-------4-------9-------9-----
D|------3-5------3-5------2-4-----2-4-----7-9-----7-9-
A|--3-------3--------2--------2-------7--------7------
D|----------------------------------------------------

Do all this once for the intro then 4 times for the first verse before

Riff 2

G|----------------------------------------------------------------------
D|----------------------------------------------------------------------
A|----------------------------------------------------------------------
D|-2-2-2-2-5-2-5-6-7-7-7-7-10-7-10-11-12-0-0-0-12-0-3-4-5-5-5-5-9-9-9-9-


G|------------------------------------------------------------------------
D|------------------------------------------------------------------------
A|------------------------------------------------------------------------
D|-10-10-10-10-10-10-10-10-8-8-8-8-8-8-8-8-9-9-9-9-9-9-9-9-9-9-9-9-9-9-9-9

Do Riff 2 Twice then Back to Riff 1 for the Second Verse

Riff 3

This is played in the chorus bit

The way i had previously tabbed the chorus was wrong but i think this is right now

G|------------------------------------------------------------------------
D|------------------------------------------------------------------------
A|------------------------------------------------------------------------
D|-2-2-5-5-7-7-10-10-12-12-0-0-5-5-9-9-10-10-10-10-8-8-8-8-9-9-9-9-9-9-9-9



Then

Riff 4

G|-------------------------------------------------------------------
D|-------------------------------------------------------------------
A|-------------------------------------------------------------------
D|-0-0-0-0-0-0-0-0-0-0-0-0-0-0-0-0-0-0-0-0-0-0-0-0-0-0-0-0-0-0-0-0-0-

This is played before the solo

Riff 1 is played behind the solo and verse 3

Then Riff 3 twice and Riff 2 4 or so times for the outro
and i think it ends on E (not sure though)

Link it to the world
Link it to yourself
Stretch it like a birth squeeze
The love for what you hide
The bitterness inside
Is growing like the new born
When you?ve seen, seen
Too much, too young, young
Soulless is everywhere

Hopeless time to roam
The distance to your home
Fades away to nowhere
How much are you worth
You can?t come down to earth
You’re swelling up, you?re unstoppable

?Cause you?ve seen, seen
Too much, too young, young
Soulless is everywhere

Destroy the spineless
Show me it?s real
Wasting our last chance
To come away
Just break the silence
?Cause I’m drifting away
Away from you

Link it to the world
Link it to yourself
Stretch it like it?s a birth squeeze
And the love for what you hide
And the bitterness inside
Is growing like the new born

When you?ve seen, seen
Too much, too young, young
Soulless is everywhere

Destroy the spineless
Show me it?s real
Wasting their last chance
To come away
Just break the silence
‘Cause I?m drifting away
Away from you

Вверх

Plug In Baby
mp3

Riff A
F#                                G                                 D
-|-------------------------------------------------------------------------|-
-|-----------------------7h8p7---------------------------7-7h8p7---7---7---|-
-|-----6-----6-7---6-7-9-------9-7-6---6-7---6-7-9-6-7-9---------9---9---7-|-
-|-8-9---8-9-----9-------------------9-----9-------------------------------|-
-|-------------------------------------------------------------------------|-
-|-------------------------------------------------------------------------|-

-|------------------------------|-
-|---------7-9-10-9-7-6-7-------|-
-|-------7----------------7---7-|- x2
-|-7-0-7--------------------7---|-
-|------------------------------|-
-|------------------------------|-

F#                                G
-|-------------------------------------|
-|-----------------------7h8p7---------|
-|-----6-----6-7---6-7-9-------9-7-6---|
-|-8-9---8-9-----9-------------------9-|
-|-------------------------------------|
-|-------------------------------------|

D       F#
I?ve exposed your lies, baby
G
The underneath is no big surprise
D         F#
Now it?s time for changing
G
And cleansing everything
D
To forget your love


F#

G              Hm
My plug in baby
F#           G
Crucifies my enemies
Hm
When I?m tired of giving
F#
wooohoohoo
G               Hm
My plug in baby
F#            G
In unbroken virgin realities
D
And tired of living

Riff A

Don?t confuse
Baby you?re gonna loose
Your own game
Change me
And replace the envying
To forget your love

My plug in baby
Crucifies my enemies
When I?m tired of giving
wwooohoohoo

My plug in baby
In unbroken virgin realities
And tired of living

Riff A till end

Вверх

Plug In Baby (2 вариант)
mp3

E|-----------------------------------------------------------|
B|-----------------------------------------------------------|
G|--------------5-----5-7-78-7-5-------------------5-----5-7-|
D|--5-7-8-5-7-8---7-8------------8-7---5-7-8-5-7-8---7-8-----|
A|-----------------------------------------------------------|
E|-----------------------------------------------------------|

E|-----------------------------------------|
B|-----------------------------------------|
G|-78-7-5-7-5--7------7-9-10-9-7-6-7-5-5-0-|
D|-----------------0-----------------------|
A|-----------------------------------------|
E|-----------------------------------------|

Вверх

Showbiz

Intro (clean sound)

e----------------|---------------------------------------------|
B----------------|.-------------------------------------------.|
G----------------|---------------------------------------------|
D--4-4-4-4-4-...-|--4-4-4-4-4-4-4-4-4-4-4-4-4-4-4-4-4-4-4-4-4--|
A----------------|.-5-5-5-5-5-5-5-5-5-5-5-5-5-5-5-5-0-0-0-0-0-.|
E----------------|------------------7-7-7-7-7-7-7-7-5-5-5-5-5--|

(Flat Picking)

F#m D/G#
e---------2-----------------2-----------------------4--------|
B-----2-----2---2-------2-----2---2--------------3-----3---3-|
G---2---2-----2-------2---2-----2--------------2---2-----2---|
D-4-----------------4-----------------------0----------------|
A------------------------------------------------------------|
E------------------------------------------------------------|

C#
e----------4-------------------------------------------------|
B------3-----3---3-----------------6-----------------6-------|
G----2---2-----2---------------6-----6---6-------6-----6---6-|
D--0-------------------------6---6-----6-------6---6-----6---|
A--------------------------4-----------------4---------------|
E------------------------------------------------------------|

Bm
e----------2-----------------2-------|
B------3-----3---3-------3-----3---3-|
G----4---4-----4-------4---4-----4---|
D--4-----------------4---------------|
A------------------------------------|
E------------------------------------|

Riff A

(with distortion, flanger, etc...)

e-----------------------------------|
B-----------------------------------|
G-----------------------------------|
D--------------9--------------------|
A-9-9h11-11b12---12-11-9-11-11b12-9-|
E-----------------------------------|
(repeat)

Verse (with disto)

Strum the chords (down strum x12 each chord and listen to the
song for the rythm)

F# / D/G# / C# / Bm (repeat)

Riff B

(with distortion, flanger, etc...) and strum fast

e------------7-----------------|
B-7-7h9-9b10---10-9-7-9b10-9-7-|
G-x----------------------------|
D-x----------------------------|
A-x----------------------------|
E-x----------------------------|

Play Verse

|-_Solo_-| (with disto & flanger)

e-----------------------------------------------------------------|
B-77777777777/999999999/1010/12121212/14141414/15151515/171717/18-|
G-----------------------------------------------------------------|
D-----------------------------------------------------------------|
A-----------------------------------------------------------------|
E-----------------------------------------------------------------|

e-------/14-/14-/14-16-16-14-16-14---|--14-14h16-16b17-19-17-16-14-|
B-1818-------------------------------|.----------------------------|
G------------------------------------|-----------------------------|
D------------------------------------|-----------------------------|
A------------------------------------|.----------------------------|
E------------------------------------|-----------------------------|

e-16b17-16-14--|
B-------------.|
G--------------|
D--------------|
A-------------.|
E--------------|

|-_Outro_-| (with disto let ring)

F#m D/G#
e---------2-----------------------------------------4-|
B-----2------------------------------------------3----|
G---2---2--------------------------------------2---2--|
D-4-----------------------------------------0---------|
A-----------------------------------------------------|
E-----------------------------------------------------|

C# Bm
e---------------------------------------------------2-|
B---------6-------------------------------------3-----|
G-----6---------------------------------------4---4---|
D---6---6-----------------------------------4---------|
A-4---------------------------------------------------|
E-----------------------------------------------------|

Play Verse

Вверх

Sober

Intro:
e. --------------------------------|
b. --------------------------------|
g. --------------------------------|
d. -9-9-9-9-9-9-9-9-9-9-9-9-9-9-9--|
a. --------------------------------|
e. --7-7-7-7-7-7-7-7-7-7-7-7-7-7-7-|

verse:
e. ---------------------------------------------------------------------|
b. ---------------------------------------------------------------------|
g. ---------------------------------------------------------------------|
d. ---------------------------------------------------------------------|
a. -9-9-9-9-9-9-9-9--2-2-2-2-2-2-2-2--4-4-4-4-4-4-4-4--6-6-6-6--7-7-7-7-|
e. -7-7-7-7-7-7-7-7--1-1-1-1-1-1-1-1--2-2-2-2-2-2-2-2--4-4-4-4--5-5-5-5-| x2

pre-chorus:
e. ------------------------------------------------------------------|
b. ------------------------------------------------------------------|
g. ------------------------------------------------------------------|
d. ------------------------------------------------------------------|
a. -5-5-5-5-5-5-5-5-5-5-5-5-5-5-5-5--6-6-6-6-6-6-6-6-6-6-6-6-6-6-6-6-|
e. -3-3-3-3-3-3-3-3-3-3-3-3-3-3-3-3--4-4-4-4-4-4-4-4-4-4-4-4-4-4-4-4-|

e. ------------------------------------|
b. ------------------------------------|
g. ------------------------------------|
d. ------------------------------------|
a. -5-5-5-5-5-5-5-5-5-5-5-5-5-5-5-5--6-|
e. -3-3-3-3-3-3-3-3-3-3-3-3-3-3-3-3--4-|

Chorus:
e. ------------ --------------------------------------------------------|
b. ------------ --------------------------------------------------------|
g. ------------ --------------------------------------------------------|
d. ------------ -----9---9------11----11--------12------12--------------|
a. ------------ --------------------------------------------------------|
e. -4/10-9-8---- -7-7---7---9-9-----9-----10-10-----10------10-10-9-8-7-| x7

it burns inside of me……
e. ---------------------------------|
b. ---------------------------------|
g. ---------------------------------|
d. ---------------------------------|
a. -9-9-9-9-9-9-9--5-5-5-5--4-4-4-4-|
e. -7-7-7-7-7-7-7--3-3-3-3--2-2-2-2-|

guitar solo:
e. -------------------------------------------|
b. -/12--15-15-15-15-15-15-14--12-16-12-14-12-|
g. -------------------------------------------|
d. -------------------------------------------|
a. -------------------------------------------|
e. -------------------------------------------|
go back and play the verse 4 times, play the pre-chorus and chorus again.

Middle section:
e. ----------------------------|
b. ----------------------------|
g. --------7^9-7---------------|
d. ----------------7-7-7-6^7-6-|
a. ----------------------------|
e. -7-7-7----------------------|  x4

e. ------------------------------------------------------------------------|
b. ------------------------------------------------------------------------|
g. ------------------------------------------------------------------------|
d. ------------------------------------------------------------------------|
a. -9-9-9-9-9-9-9-9-11-11-11-11-11-11-11--5-5-5-5-5-5-5-5--4-4-4-4-4-4-4-4-|
e. -7-7-7-7-7-7-7-7--9--9--9--9--9--9--9--3-3-3-3-3-3-3-3--2-2-2-2-2-2-2-2-|
play the verse twice, pre-chorus and chorus to finish.

Вверх

Space Dementia
mp3

Вступление Intro:(reverb)
E|-0--0--2--2--0--0--2---2--0-|
B|-0--1--2--4--0--1--2---2--1-|
G|-0--0--3--2--0--0--3---3--0-|
D|-2--2--4--4--2--2--2---3--2-|
A|-2--3--4--2--2--3--4---4--3-|
E|-0--3--2--x--0--3--2---2--3-|


Куплет Verse 1:(clean)
E|--0------------------x-|
B|--0------------------1-|
G|--0------------------2-|
D|--4------------------4-|
A|--2------------------x-|
E|--0------------------x-|
Mmm, Height is the one for me

E|--------------0-|
B|--------------0-|
G|--------------0-|
D|--------------2-|
A|--------------2-|
E|--------------3-|
It gives me all I need

E|----------0----------------------2-----2-----2-------2-|
B|----------1----------------------3-----2-----3-------0-|
G|----------2----------------------4-----3-----4-------2-|
D|----------2----------------------4-----4-----4-------1-|
A|----------0----------------------2-----4-----2-------x-|
E|----------x----------------------x-----2-----x-------x-|
Helps me co-exist with the chill               Ooh


Куплет Verse 2:
E|-0-|
B|-0-|
G|-0-|
D|-4-|
A|-2-|
E|-0-|
You make me sick

E|------------x-|
B|------------1-|
G|------------2-|
D|------------4-|
A|------------x-|
E|------------x-|
Because I adore you so

E|----------------0-|
B|----------------0-|
G|----------------0-|
D|----------------2-|
A|----------------2-|
E|----------------3-|
I love all the dirty tricks

E|-------------0------------------2-----2-----2----2-|
B|-------------1------------------3-----2-----3----0-|
G|-------------2------------------4-----3-----4----2-|
D|-------------2------------------4-----4-----4----1-|
A|-------------0------------------2-----4-----2----x-|
E|-------------x------------------x-----2-----x----x-|
and twisted games you play on me                Ooh


Припев Chorus 1
E|-0--x--1--x--0--2-|
B|-0--4--3--2--1--4-|
G|-0--4--2--2--2--2-|
D|-2--4--0--2--2--4-|
A|-2--2--x--4--3--2-|
E|-0--x--x--x--x--x-|

E|-0-----0----0---------2----2-|
B|-0-----0----2---------2----3-|
G|-1-----2----0---------2----4-|
D|-2-----2----2---------2----4-|
A|-2-----0----0---------0----2-|
E|-0-----0----x---------x----x-|
Space de   meneia in your eyes

E|-1---1-----------0----2--------x--x-|
B|-3---0-----------1----2--------4--3-|
G|-2---0-----------0----3--------4--2-|
D|-0---0-----------2----2--------4--0-|
A|-x---2-----------3----4--------2--x-|
E|-x---3-----------3----2--------x--x-|
and peace will arise and tear us apart


E|-0--------------1------2----------x---2-|
B|-0--------------1------2----------x---4-|
G|-1--------------2------3----------4---2-|
D|-2--------------3------2----------4---4-|
A|-2--------------3------4----------2---2-|
E|-0--------------1------2----------x---x-|
and make us meaningless again


Куплет Verse 3:
E|-0-|
B|-0-|
G|-0-|
D|-4-|
A|-2-|
E|-0-|
You?ll make us wanna die

E|--------------x-|
B|--------------1-|
G|--------------2-|
D|--------------4-|
A|--------------x-|
E|--------------x-|
I?d cut your name in my heart

E|--------------------0-|
B|--------------------0-|
G|--------------------0-|
D|--------------------2-|
A|--------------------2-|
E|--------------------3-|
We?ll destroy this world for you

E|------------0-|
B|------------1-|
G|------------2-|
D|------------2-|
A|------------0-|
E|------------x-|
I know you want me to

E|-----------2-------2------2------2-|
B|-----------3-------2------3------0-|
G|-----------4-------3------4------2-|
D|-----------4-------4------4------1-|
A|-----------2-------4------2------x-|
E|-----------x-------2------x------x-|
Feel your pain

Припев chorus 1

Завершение Outro:
E|-0--0--2--2--0--0--2--x--0-|
B|-0--1--2--4--0--1--2--4--0-|
G|-0--0--3--2--0--0--3--4--0-|
D|-2--2--2--4--2--2--2--4--2-|
A|-2--3--4--2--2--3--4--2--2-|
E|-0--3--2--x--0--3--2--x--0-|

Вверх

Sunburn

Intro/verse (play 12 times)
E|-7-----7---7-----7-----7---7--|---8-----8---8----7----7---7--|
B|---8-----8---8-----8-----8---8|-----8-----8---8----8----8---8|
G|-----9---------------9--------|-------9--------------9-------|
D|9--------------7--------------|10---------------7------------|
A|------------------------------|------------------------------|
E|------------------------------|------------------------------|

Chorus (play twice)
E|-5--5-----5-|-7--7-----7-|-5--5-----5-|-7--7-----7-|
B|-5--5-----5-|-8--8-----8-|-5--5-----5-|-8--8-----8-|
G|-5--5-----5-|-9--9-----9-|-5--5-----5-|-9--9-----9-|
D|-7--7-----7-|-9--9--x--9-|-7--7-----7-|-9--9--x--9-|
A|-7--7--x--7-|-7--7--x--7-|-7--7--x--7-|-7--7--x--7-|
E|-5--5--x--5-|------------|-5--5--x--5-|------------|

Verse 2 (play 6 times)
E|-12-----------------------------------------|
B|----12-------12--------15-12-------12-------|
G|-------12-------12-----------12-------12----|
D|-14-------14-------14-----------14-------14-|
A|-----------------------12-------------------|
E|--------------------------------------------|

|First time only
E|--8--------8------7------------7/12-|
B|----8--------8------10-----10--7/12-|
G|------9--------9-------9------------|
D|-10-----10--------7------7----------|
A|------------------------------------|
E|------------------------------------|

Repeat Chorus

Solo (repetively pick each note)
E|---------------------------------------------|
B|-/5-/5-/5-/5-/5-/5/6/7/8/9/10/11/12/13/14/15-|
G|---------------------------------------------|
D|---------------------------------------------|
A|---------------------------------------------|
E|---------------------------------------------|

Solo continued (play twice)             |second time only
E|-9/12-9/12-9/12-/15-14-14-9/12-11----------|
B|----------------------------------9/13-121-|
G|-------------------------------------------|
D|-------------------------------------------|
A|-------------------------------------------|
E|-------------------------------------------|

Repeat Chorus

Interlude (4 times)
E|-------12--------------12-----|-------12--------------12-----|
B|---13------13------13----13---|---12------12------12----12---|
G|-12--12--12--12--12--12----12-|-12--12--12--12--12--12----12-|
D|------------------------------|------------------------------|
A|------------------------------|------------------------------|
E|------------------------------|------------------------------|

Outro
E|-12----12----12----12----12----12----12----12----11----11----|
B|---11----11----11----11----11----11----11----11----11----11--|
G|9-----9-----9-----9-----9-----9-----9-----9-----9-----9-----9|
D|-------------------------------------------------------------|
A|-------------------------------------------------------------|
E|-------------------------------------------------------------|

E|13----12----11----12----13----12----11---12---13---12---11---|
B|--11----11----11----11----11----11----11---11---11---11---11-|
G|-----9-----9-----9-----9-----9-----9----9----9----9----9----9|
D|-------------------------------------------------------------|
A|-------------------------------------------------------------|
E|-------------------------------------------------------------|

E|-...-21----21----21----21----211p0-|
B|-...---20----20----20----20--------|
G|-...-----18----18----18----18------|
D|-...-------------------------------|
A|-...-------------------------------|
E|-...-------------------------------|

Вверх

Time Is Running Out
mp3

High bit in verse
e--12-------11------------12-13-10-|
B-----13-10----13-10-9-12----------|
G----------------------------------|
D----------------------------------|
A----------------------------------|
E----------------------------------|

Pre chorus
e------------------------
B------------------------
G------------------------
D--77777777-55555555-----
A--77777777-55555555-----
E--55555555-33333333-----   x4

e------------|
B------------|
G-12--10---9-|
D------------|
A-10--8----7-|
E------------|

Chorus
e--1--3---5--3----
B--1--3---5--3----
G--2--4---6--5----
D--3--5---7--5----
A--3--5---7--3----
E--1--3---5-------  X2

Last line of chorus)
e------------------|
B------------------|
G------------------|
D------------------|
A-----3--------5---|
E-1-1---1--3-3---3-|

Riff before 2nd verse
e--------------------------
B--------------------------
G-9------8----------9-10-7-
D---10-7---10-7-6-9--------
A--------------------------
E--------------------------  X1

Verse 2
e------------------------------------------------
B------------------------------------------------
G--2-2-5-2---4-4-2-4-------9---------------------
D--2-2-5-2---4-4-2-4---2-2-9-2-------------------
A--0-0-3-0---2-2-0-2---2-2-7-2-------3--------5--
E----------------------0-0---0---1-1---1--3-3---3  X3

Pre Chorus -
e-------------------------------------------------
B-------------------------------------------------
G--14-14-14-14-14-14-14-14-12-12-12-12-12-12-12-12
D-------------------------------------------------
A--12-12-12-12-12-12-12-12-10-10-10-10-10-10-10-10
E-------------------------------------------------  X4

e------------|
B------------|
G-12--10---9-|
D------------|
A-10--8----7-|
E------------|

Chorus

E--1-----0--------                e-----|
B--1-----0--------                B-----|
G--2-----2--------                G---1-|
D--3-----2--------                D---2-|
A--3-----0--------                A---2-|
E--1--------------      X3        E---0-|
O-o-o yeah yeah yeah

e--12--11--10--8-|
B--13--13--12--8-|
G--14--14--13--7-|
D----------------|
A----------------|
E----------------|

Pre Chorus

Chorus

e------------|
B------------|
G-9--8--7--5-|
D------------|
A------------|
E------------|

I think I?m drowning,
asphxyated.
I wanna break the spell,
that you created.
you?re something beautiful,
a contraditcion.
I wanna play the game,
I want the friction.
You
will be
the death
of me
you
will be
the death
of me

Bury it
I won?t let you bury it
I won?t let you smother it
I won?t let you murder it
but our time is

running out
and our time is running out
you can?t push it underground
you can?t stop it screaming out

I wanted freedom
but I?m asphxyted
I try to give you up
but I?m addicted
now that you know I?m trapped
since ovalation
you never dream of
breaking this fixation
you
will squeeze
the life
out of me

Bury it
I won?t let you bury it
I won?t let you smother it
I won?t let you murder it
but our time is

running out
and our time is runing out
you can?t push it underground
you can?t stop is screaming out
how did it come to this?

o-o-o yeah yeah yeah yeah yeah
o-o-o yeah yeah yeah yeah yeah
o-o-o yeah yeah ?yeah yeah yeah?(screamed)

you
will suck
the life
out of me

Bury it
I won?t let you bury it
I won?t let you smother it
I won?t let you murder it
but our time is

running out
and our time is runing out
you can?t push it underground
you can?t stop is screaming out
how did it come to this?

o-o-o yeah yeah yeah yeah yeah
o-o-o yeah yeah yeah yeah yeah
o-o-o yeah yeah ?yeah yeah yeah?(screamed)

Вверх

Unintended

Intro:
e|--------0------|---------------|--------0----|---------------|
B|--------0------|--------2-1-0--|----0---0----|--------2-1-0--|
G|--------1-----1|------1-------2|0h1-----1----|------1-------2|
D|----2-------2--|----2----------|------2------|----2----------|
A|---------------|0h2------------|-------------|0h2------------|
E|0--------------|---------------|0------------|---------------|

e|--------------|2-------------|---------------|2--------------|
B|--------0-----|----0---------|--------0------|----0----------|
G|------------2-|--------2-----|------------2--|--------2------|
D|----1---------|------------1-|----1----------|------------1--|
A|2-------------|--------------|2--------------|---------------|
E|--------------|--------------|---------------|---------------|

Verse:

used in the rest of the song. I?ll
only write down the first eight bars;
the rest is just like this:

[E] [Am]
e|--------------|0-------------|---------------|0--------------|
B|--------0-----|----0---------|--------1------|----1----------|
G|------------1-|--------1-----|------------2--|--------2------|
D|----2---------|------------2-|----2----------|------------2--|
A|--------------|--------------|0--------------|---------------|
E|0-------------|--------------|---------------|---------------|
You ...

[D] [G4]
e|--------------|2-------------|---------------|3--------------|
B|--------3-----|----3---------|--------3------|----3----------|
G|----2-------2-|--------2-----|------------0--|--------0------|
D|0-------------|------------0-|----0----------|------------0--|
A|--------------|--------------|---------------|---------------|
E|--------------|--------------|3--------------|---------------|

Here are the chords:

E / Am / D / G4
C / H7 / E / E

Repeat these chords until the mainpart is over! :)

Outro:

Am / G-Am / F#-Am / F-Asus2
Esus4 / Esus4 / Esus4 / E

And in the end:

e|--|
B|--|
G|--|
D|--|
A|--|
E|0-|
^
hold!

Вверх

Unintended (2 вариант)

F#              Hm
You could be my unintended
E               A
Choice to live my life extended
D                A7           F#
You could be the one I?ll always love

F#               Hm
You could be the one who listens
E             A
To my deepest inquisitions
D                A7           F#
You could be the one I?ll always love

F#               Hm
I?ll be there as soon as I can
E             A
But I?m busy mending broken
D              A7          F#
Pieces of the life I had before

First there was the one who challenged
All my dreams and all my balance
She could never be as good as you
You could be my unintended
Choice to live my life extended
You could be the one I?ll always love

I?ll be there as soon as I can
But I?m busy mending broken
Pieces of the life I had before

I?ll be there as soon as I can
But I?m busy mending broken
Pieces of the life I had before

Before you

Вверх

Uno

Em
This means nothing to me
Am
?Cause you are nothing to me
B7           Am
And it means nothing to me
Em
That you blew this away

?Cause you could have been number one
If you only found the time
And you could have ruled the whole world
If you had the chance

You could have been number one
And you could have ruled the whole world
And we could have had so much fun
But you blew it away

You?re still nothing to me
And this is nothing to me
And you don?t know what you?ve done
But I?ll give you a clue

You could have been number one
If you only had the chance
And you could have ruled the whole world
If you had the time

You could have been number one
And you could have ruled the whole world
And we could have had so much fun
But you blew it away

You could have been number one
And you could have ruled the whole world
And we could have had so much fun
But you blew it away

Вверх