Ozzy Osbourne

Dreamer
Dreamer (2 вариант)
I Just Want You
Killer Of Giants
Mama, I Coming Home
Вверх

Dreamer

|-------------------------------------------------------|
|-------------------------------7-9-11------------------|
|-6h8p6-6-b9-6-8-----6h8p6-8-10--------910-----10/8/6--|
|----------------8-(6)----------------------------------|
|-------------------------------------------------------|
|-------------------------------------------------------|

|----9-11-13-14-16-18-13~-------------------------------|
|-7h9------------------------13-----13~----13/9---------|
|------------------------------15p13--------------------|
|-------------------------------------------------------|
|-------------------------------------------------------|
|-------------------------------------------------------|

|-------------------------------------------------------|
|----------------------------13-14-16-18~~~-------------|
|-------------------12-14-15----------------------------|
|----------12-14-15-------------------------------------|
|-12-14-15----------------------------------------------|
|-------------------------------------------------------|

Вверх

Dreamer (2 вариант)

Intro (Piano)
C#
E||-------|----------------------|
B||-------|-------9----9----7----|
G||-------|----------------------|
D||--6----|----------------------|
A||-------|--4-------------------|
E||-------|----------------------|


----------------------|---------------------|
--7----6----6----4----|--4h---6----6--------|
----------------------|---------------------|
----------------------|---------------------|
----------------------|---------------------|
----------------------|---------------------|

C#
-------------------|----------------------|
-------------------|-------9----9----7----|
-------------------|----------------------|
--------------6----|----------------------|
-------------------|--4-------------------|
-------------------|----------------------|



----------------------|---------------------||
--7----6----6----4----|--4h---6----6--------||
----------------------|---------------------||
----------------------|---------------------||
----------------------|---------------------||
----------------------|---------------------||


C#                               A#m
Gazing through the window at the world outside,
C#                             A#m
Wonderin? will mother Earth survive.
F#                              D#m            G#   F# G#
Hopin?, that mankind will stop abusin? her sometime.
C#                                A#m
After all there?s only just the two of us
C#                                 A#m
And here we are still fightin? for our lives.
F#                       D#m                     G#   F# G#
Wathin? all of history repeat itself, time after time.

Chorus:
C#
I?m just a dreamer,
A#m           Fm  G#
I dream my life away.
C#
I?m just a dreamer,
A#m             Fm  G#
Who dreams of better days.


I watch the sun go down like everyone of us
I?m hopin? that the dawn will bring a sign
Of better place for those who will come after us
This time...

Chorus.

D#m                               G#
You?re higher power maybe God or Jesus Christ,
D#m                           G#
It doesn?t really matter much to me.
D#m                                  G#
Without each other?s help there ain?t a hope for us.
D#m                          G#
I?m leavin? you and bring a fantasy.

Guitar Solo.
C#
E||---------------------|
B||---------------------|
G||-----------6----8----|
D||----4/6--------------|
A||---------------------|
E||---------------------|

A#m
---------------------|--------------------|
---------------------|--------------------|
--8br------6----8----|--------------------|
---------------------|--6/8~~-------------|
---------------------|--------------------|
---------------------|--------------------|


C#
------------------|---------------------|
------------------|---------------------|
------------------|-----------6----8----|
------------------|----4/6--------------|
------------------|---------------------|
------------------|---------------------|


A#m
-----------------------|---------------------|
--6----7----9----11----|---------------------|
-----------------------|--8/10~~-------------|
-----------------------|---------------------|
-----------------------|---------------------|
-----------------------|---------------------|


C#
----------------------|------------------------|
----------------------|------------------------|
----------10p8/6------|------------18----20----|
----------------------|---16/18----------------|
----------------------|------------------------|
----------------------|------------------------|


A#m
--------------------18----|----------------------|
--18----19----21----------|--18------------18----|
--------------------------|--20b-----------20b---|
--------------------------|----------------------|
--------------------------|----------------------|
--------------------------|----------------------|


Fm
------------------------|------------------------|
--18--------18----------|------------------------|
--20b-------20br----15--|--15br-13h15b-----------|
------------------------|------------------------|
------------------------|------------------------|
------------------------|------------------------|


G#
--------------------|--------------------|
--------------------|--------------------|
----------15br------|--13~~--------------|
--------------------|--------------------|
--------------------|--------------------|
--------------------|--------------------|



--------------------------------------------------|
--------------------------------------------------|
--------------------------------------17--18--20--|
--------------------------16--18--20--------------|
--------------16--18--20--------------------------|
--16--18--20--------------------------------------|


C#
|--------------------||
|--------------------||
|--20b---------------||
|--------------------||
|--------------------||
|--------------------||

Piano
E||-------|----------------------|
B||-------|-------9----9----7----|
G||-------|----------------------|
D||--6----|----------------------|
A||-------|--4-------------------|
E||-------|----------------------|

Contrabass
A||-------|--4-------------------|
E||-------|----------------------|

|----------------------|---------------------|
|--7----6----6----4----|--4h---6----6--------|
|----------------------|---------------------|
|----------------------|---------------------|
|----------------------|---------------------|
|----------------------|---------------------|

|--2-------------------|--1------------------|
|----------------------|---------------------|

C#
|-------------------|----------------------|
|-------------------|-------9----9----7----|
|-------------------|----------------------|
|--------------6----|----------------------|
|-------------------|--4-------------------|
|-------------------|----------------------|

|--0----------------|--4-------------------|
|-------------------|----------------------|

|----------------------|---------------------|---------||
|--7----6----6----4----|--4h---6----6--------|---------||
|----------------------|---------------------|---------||
|----------------------|---------------------|---------||
|----------------------|---------------------|---------||
|----------------------|---------------------|---------||

|--2-------------------|--1------------------|---------||
|----------------------|---------------------|--4------||

If only we could all just find serenity
It will be nice if we could leave as one.
When will all this anger, hate and biggotry
Be gone?

Chorus:
I?m just a dreamer,
I dream my life away, today.
I?m just a dreamer,
Who dreams of better days, OK.
I?m just a dreamer,
Who searchin? for the way, today.
I?m just a dreamer,
Dreamin? my life away...

Вверх

I Just Want You

Hm                        A
There are no unlockable doors
Em                       Hm
There are no unwinable wars
Hm                           A
There are no unrightable wrongs
Em                  Hm
Or unsignable songs
Hm                        A
There are no unbeatable odds
Em                        Hm
There are no believable gods
Hm                         A
There are no unnameable names
Em                       Hm
Shall I say it again, yeah
Hm                          A
There are no impossible dreams
Em                        Hm
There are no invisible seams
Hm                               A
Each night when the day is through
Em
I don?t ask much
Em           Hm  A  Em
I just want you
Em           Hm  A  Em
I just want you

There are no uncriminal crimes
There are no unrhymable rhymes
There are no identical twins or
Forgivable sins

There are no incurable ills
There are no unkillable thrills
One thing and you know it?s true,
I don?t ask much

I just want you
I just want you
I just want you
I just want you
E                         Em
I?m sick and tired of bein? sick and tired
E                         Em           Hm
I used to go to bed so high and wired, yeah - yeah, yeah, yeah
I think I?ll buy myself some plastic water
I guess I should have married Lennon?s daughter, yeah - yeah, yeah, yeah

There are no unachievable goals
There are no unsaveable souls
No legitimate kings or queens, do
You know what I mean? Yeah

There are no indisputable truths
And there ain?t no fountain of youth
Each night when the day is through,
I don?t ask much

Вверх

Killer Of Giants

                      (let ring...)
-------------------------0-----|
---------5-------------0-------|
-------4---4---------5---------| (X 2)
-----2-------2-----5-----------|
---2-----------2-3-------------|
-0-----------------------------|

Delay off for the next part:

-------------------------0-------------------------------0-------    ___
---------5-------------0---0-------------5-------------3---3-----     |
-------4---4---------5-------5---------4---4---------3-------3---     |
-----2-------2-----5-----------5-----2-------2-----3-----------3-     |
---2-----------2-3-----------------2-----------2-1---------------     |
-0-------------------------------0-------------------------------     |
|
(X 2)
-------------------------0---------------0---------------0-------     |
---------5-------------0---0---------------0---------------0-----     |
-------4---4---------5-------5---------4-----4---------2-----2---     |
-----2-------2-----5-----------5-----5---------5-----3---------3-     |
---2-----------2-3-----------------5---------------3-------------     |
-0-------------------------------3---------------1---------------    ~~~


---------3---------------3---------------3-------6-----5-----3---
-------3---3-----------3---3-----------3---3-------3-----3-----3-
-----5-------5-------5-------5-------3-------3-------3-----3-----  (X 2)
---5-----------5---5-----------5---3-----------3-----------------
-3---------------3---------------3-------------------------------
-----------------------------------------------------------------


-5-------5---------------5---------------5-------8-----7-----5---
-------5---5-----------5---5-----------5---5-------5-----5-----5-
-----7-------7-------7-------7-------5-------5-------5-----5-----
---7-----------7---7-----------7---5-----------5-----------------
-5---------------5---------------5-------------------------------
-----------------------------------------------------------------

{strum chord from bottom to
---------5---------------5---------------5-------8----  top and let ring...}
-------5---5-----------5---5-----------5---5-----5----
-----7-------7-------7-------7-------7-------7---5----
---7-----------7---7-----------7---7-----------7-5----
-5---------------5---------------5---------------5----
------------------------------------------------------


{--4x--}{--4x--}
-0-------0-------     0---------------0---------------0-------------------0----
---0-------0----- <   --0-----------0---0-----------0---0---------------0---0--
-----6-------5---(X 2)----2-------2-------2-------2-------2-----------2-------2
-------6-------5- <   ------2---2-----------2---2-----------2-------2----------
-----------------     --------0---------------0---------------2-2-2------------
-----------------     ---------------------------------------------------------




If
none of us            believes in war                        then
-----------------------------------------4-----------------------
---------2------7-------5---------5--------5-----5-4-----4-5-----
-----------2------4-------6---6------6-------6-------4-------6---
------4------4------4-------7----------6-------6-------4-------6-
----4-----------------------------4--------------4-6-----6-4-----
-2--------------4-------5----------------------------------------


can you tell me what the weapons for...
-------------------------------------------------------------------
----------9-------10-----12-10-9-----7-----7-9-----9-7-----7-9-----
--------9---9---9----9-----------9-----7-------9-------7-------9---
------9-------9--------9-----------9-----7-------9-------7-------9-
-5/7---------------------------------0-------7-------0-------7-----
-------------------------------------------------------------------

Listen to me..............
-------------------------------------------------------------
-2-----2-0-------5-------3-----3-2-----2--------5------3-----
---0-------0---0---0---0---0-------4------4---4---2------4---
-----0-------0-------0-------0-------4------4-------4------4-
---------------------------------2--------------2------2-----
-3---------------3-------------------------------------------


---------------------------------------------------------------
-2-----2-0-------5-------3-----------2---2-----------2---2-----
---0-------0---0---0---0---0---0-------4---4---4-------4---4---
-----0-------0-------0-------0-----4---------4-----4---------4-
---------------------------------2-----------------------------
-3---------------3---------------------------------------------

---------------------------------------------------------------
-2-----2-0-------5-------3-----------2---2-----------2---2-----
---0-------0---0---0---0---0---0-------4---4---4-------4---4---
-----0-------0-------0-------0-----4---------4-----4---------4-
---------------------------------2-----------------------------
-3---------------3---------------------------------------------


-------------------------------------------------0---------------
-2-----2-0-------5-------3-------2-----2-0---------0-----3-------
---0-------0---0---0---0---0---0---2-------2---2-----2-----2---2-
-----0-------0-------0-------0-------2-------2---------2-----2---
---------------------------------0-------------------------------
-3---------------3-----------------------------------------------

{strum from bottom to top
-----------------------------------------------2-  and let chord ring}
-2-----2-0-------5-------3-----------2---2-----2-
---0-------0---0---0---0---0---0-------4---4---4-
-----0-------0-------0-------0-----4---------4-4-
---------------------------------2-------------2-
-3---------------3-------------------------------


oh yeah here?s the end thing he does:
---------0-5/7-
-----0h1-------
---------------
---2-----------
-0-------------
---------------

Вверх

Mama, I Coming Home

Intro

E ---12---------------
B ------12------------
G ---------(13)b11--9-
D --------------------
A --------------------
E --------------------

E ----0-------0-------0-------0------0-------0-------0--------0----
B ------0-------0-------0-------0------0-------0--------0--------0-
G --9------8-------6-------4-------2------1------------------------
D ------------------------------------------------4--------2-------
A -----------------------------------------------------------------
E -----------------------------------------------------------------

Times are strange... (2nd time through)

E ----0-------0-------0-------0------0-------0-------0--------0----
B ------0-------0-------0-------0------0-------0--------0--------0-
G --9------8-------6-------4-------2------1------------------------
D ------------------------------------------------4--------6-------
A -----------------------------------------------------------------
E -----------------------------------------------------------------


Aadd2                      E5        Esus4
E --------0------------0------------0---------0-------0----
B ----------0------------0------------0---------0-------0--
G ------2------------2-----2------------1-1/2-----2/4------
D ----2------------2--------------2------------------------
A --0------------0--------------2--------------------------
E ----------------------------0----------------------------

Mama I?m...

Pre-chorus:

C#min              A add2                Emaj      Esus4 Emaj
E ----------4------------------0---------------------0-----------0---0------
B ----------5------------------0---------------------0-----------0---0------
G ----------6------------------2---------------------1-----------2---1------
D ----------6------------------2---------------------2-----------2---2------
A ----------4------------------0---------------------2-----------2---2------
E ---------------------------------------------------0-----------0---0------

(Well you took me in and you threw me out yeah you had me hypnotised)


C#min              A add2                 Bmaj
E --4------------------0---------------------2-
B --5------------------0---------------------4-
G --6------------------2---------------------4-
D --6------------------2---------------------4-
A --4------------------0---------------------2-
E ---------------------------------------------

(Lost and found and turned around by the fire in your eyes)


A add2                         Emaj
I?ve seen your face a thousand times...


Chorus:

A     B               C      D     E
?cos mama, mama I?m comin? hoooooooooooooome

Вверх