Placebo

Blue American
Every Me And Every You
Every You And Every Me
Every You Every Me
I Know
My Sweet Prince
Protect Me From What I Want
Special K
This Picture
Вверх

Blue American
mp3

intro: Am;Fm;Am;Fm
Am                Fm
I wrote this novel just for you
Am                    Fm
It sounds pretentious but its true
Am               Fm
I wrote this novel just for you
Am
Thats why its vulgar
Fm
Thats why its blue
C         Fm
And I say,thank you
C        Fm
And I say,thank you

I wrote this novel just for mom
For all the mommy thing shes done
For all the time she showed me wrong
For all the time she sang Gods song
C             Fm
And I say thank you mom
C        Fm
Hello mom
C           Fm
Thank you mom
C       Fm
Hi mom

I read a book about uncle Tom
Where whitey bastard made a bomb
But now Ebonics rule our song
Those motherfucker got it wrong
And I ask
Who is uncle Tom?
Who is uncle Tom?
Who is uncle Tom?
You are

I read a book about thyself
Said I should get expensive help
Go fix my head
Create some wealth
Put my neurosis on a shelf
But I dont care for myself
I dont care for myself
I dont care for myself
I dont care

I wrote this novel just for you
Im so pretentious,yes its true
Am              Fm
I wrote this novel just for you
Am
Just for you
Fm
Just for you

Вверх

Every Me And Every You

Em      C        D     Em
Sucker love is heaven sent
Em      C        D     Em
You pucker up, our passion?s spent
Em      C        D     Em
My hearts a tart, your body?s rent
Em      C        D     Em
My body?s broken, yours is spent

Am                      G
Carve your name into my arm
G                               C
Instead of stressed, I lie here charmed
C                            G
Cause there?s nothing else to do
C                   Em
Every me and every you

Sucker love, a box I choose
No other box I choose to use
Another love I would abuse
No circumstances could excuse
In the shape of things to come
Too much poison come undone
Cause there?s nothing else to do

Every me and every you
Every me and every you
Every me

Sucker love is known to swing
Prone to cling and waste these things
Pucker up for heavens sake
There?s never been so much at stake
I serve my head up on a plate
It?s only comfort, calling late
Cause there?s nothing else to do

Every me and every you
Every me and every you
Every me (2r)

Like the naked leads the blind
I know I?m selfish, I?m unkind
Sucker love I always find
Someone to bruise and leave behind
All alone in space and time
There?s nothing here but what here?s mine
Something borrowed, something blue

Every me and every you
Every me and every you
Every me (4r)

Вверх

Every You And Every Me

[Intro (verse)]

|----------------------------------------|
|----------------------------------------|
|----------------------------------------|
|-6-6-6-6-6-6-6-6-6-6-6-6-8-8-8-8--------|
|-4-4-4-4-4-4-4-4-4-4-4-4-6-6-6-6--------|
|-----------------5-5-5-5-7-7-7-7--------|

|----------------------------------------|
|----------------------------------------|
|----------------------------------------|
|-6-6-6-6-6-6-6-6-6-6-6-6----------------|
|-4-4-4-4-4-4-4-4-4-4-4-4-7-7-7-7--------|
|-----------------5-5-5-5-5-5-5-5--------|

Sucker love is heaven sent...

[Chorus]

|-----0-----0-----0-----0-----0-----0-----0-----0-|
|-----0-----0-----0-----0-----0-----0-----0-----0-|
|-----6-----6-----6-----6-----6-----6-----6-----6-|
|-----7-----7-----7-----7-----6-----6-----6-----6-|
|-----7-----7-----7-----7-4-4-4-4-4-4-4-4-4-4-4-4-|
|-5-5-5-5-5-5-5-5-5-5-5-5-------------------------|

Carve your name into my arm...

[All other goes just the same way]

[Full Lyrics]

Sucker love is heaven sent...
You pucker up our passions spent
My hearts a tart your bodys rent
My bodys broken yours is bent

Carve your name into my arm...
Instead of stressed I lie here charmed
Cuz theres nothing else to do
Every me and every you

Sucker love a box I choose
No other box I choose to use
Another love I would abuse
No circumstances could excuse

In the shape of things to come
Too much poison come undone
Cuz theres nothing else to do,
Every me and every you.

Every me and every you,
Every Me...he

Sucker love is known to swing.
Prone to cling and waste these things.
Pucker up for heavens sake.
Theres never been so much at stake.

I serve my head up on a plate.
Its only comfort, calling late.
Cuz theres nothing else to do,
Every me and every you.

Every me and every you, |
Every Me...he           | 2

Like the naked leads the blind.
I know Im selfish, Im unkind.
Sucker love I always find,
Someone to bruise and leave behind.

All alone in space and time.
Theres nothing here but what heres mine.
Something borrowed, something blue.
Every me and every you.

Every me and every you, |
Every Me...he           | 4


[End]

|-4-4-4-4-4-4-4-4--------------------------------|
|-4-4-4-4-4-4-4-4--------------------------------|
|-4-4-4-4-4-4-4-4--------------------------------|
|-6-6-6-6-6-6-6-6-6-6-6-6-6-6-6-6----------------|
|-6-6-6-6-6-6-6-6-6-6-6-6-6-6-6-6----------------|
|-----------------4-4-4-4-4-4-4-4----------------|

[Acoustic Version Chord]

|-0---------------------------------------|
|-0---------------------------------------|
|-6---------------------------------------|
|-6---------------------------------------|
|-4---------------------------------------|
|-----------------------------------------|

(The rest is the same only slower)

Вверх

Every You Every Me

Verse/Intro:

C  --------------------------------------------------------------------------
C  --------------------------------------------------------------------------
G# -6-6-6-6-6-6-6-6--6-6-6-6--8-8-8-8--6-6-6-6-6-6-6-6-6-6-6-----------------
D# -6-6-6-6-6-6-6-6--6-6-6-6--7-7-7-7--6-6-6-6-6-6-6-6-6-6-6-7-7-7-7-6-6-6-6-
A# -4-4-4-4-4-4-4-4--4-4-4-4--6-6-6-6--4-4-4-4-4-4-4-4-4-4-4-4-4-4-4-4-4-4-4-
F  ------------------5-5-5-5--7-7-7-7------------------4-4-4-5-5-5-5-5-5-5-5-

Pre-chorus/chorus (Stefan?s part):

C  ---------0-0-------------0-0-------------0-0---------------0-0-0-
C  ---------0-0-------------0-0-------------0-0---------------0-0-0-
G# -6-6-6-6-6-6-6-6-6-6-6-6-6-6-6-6-6-6-6-6-6-6-6-6-6-6-6-6-6-6-6-6-
D# -7-7-7-7-7-7-7-7-7-7-7-7-7-7-7-7-6-6-6-6-6-6-6-6-6-6-6-6-6-6-6-6-
A# -0-0-0-0-0-0-0-0-0-0-0-0-0-0-0-0-4-4-4-4-4-4-4-4-4-4-4-4-4-4-4-4-
F  -----------------------------------------------------------------

C  ---------0-0-0-------------0-0-0-0-0-0-0-0-0-0-0-----------0-0-0-
C  ---------0-0-0-------------0-0-0-0-0-0-0-0-0-0-0-----------0-0-0-
G# -6-6-6-6-6-6-6-6-6-6-6-6-6-6-6-6-6-6-6-6-6-6-6-6-6-6-6-6-6-6-6-6-
D# -7-7-7-7-7-7-7-7-7-7-7-7-7-7-7-7-7-7-7-7-7-7-7-7-7-7-7-7-7-7-7-7-
A# -7-7-7-7-7-7-7-7-7-7-7-7-7-7-7-7-7-7-7-7-7-7-7-7-7-7-7-7-7-7-7-7-
F  -5-5-5-5-5-5-5-5-5-5-5-5-5-5-5-5-0-0-0-0-0-0-0-0-4-4-4-4-4-4-4-4-

Pre-chorus/chorus (Brian?s part):

C  -------------------------------------------------------------------------------------
C  -------------------------------------------------------------------------------------
G# -------------------------------------------------------------------------------------
Eb -------------------------------------------------------------------------------------
Bb -<1>-<1>-<1>-<1>-<1>-<1>-<1>-<1>-<1>-<1>-<1>-<1>-<1>-10-10-10-10-10-10-8-8-8-8-8-8-8-
F  -------------------------------------------------------------------------------------

C  -----------------------------------------------------------------------------------------
C  -----------------------------------------------------------------------------------------
G# -----------------------------------------------------------------------------------------
Eb -----------------------------------------------------------------------------------------
Bb -<1>-<1>-<1>-<1>-<1>-<1>-<1>-<1>-<1>-<1>-<1>-<1>-<1>-<1>---------------------------------
F  -------------------------------------------------------<2>-<2>-<2>-<2>-<2>-<2>-<7>-<7>-<7>

Outro (Brian)
Played on live version:

C  -------------------------------------------------------------------------------
C  -------------------------------------------------------------------------------
G# -15-15-15-15-15-15--15-15-15-13-13-13-13-13-13-15-15-15-15-15-13-13-13-13-13---
Eb -12-12-12-12-12-12--12-12-12-12-12-12-12-12-12-12-12-12-12-12-12-12-12-12-12---
Bb -0--0--0--0--0--0---0--0--0--0--0--0--0--0--0--0--0--0--0--0--0--0--0--0--0----
F  -------------------------------------------------------------------------------

Last chorus (2:32) fill with tremolo effect:

C -0---0-
C -0---0-
G# -4---4-
D# -------
A# -------
F -------

Weird keyboard part, near end:

C -16---12----16--12--------------19--16--12--------
C -16---12----16--12--------------19--16--12--------
G# --------------------11--13-11-13------------------
Eb --------------------------------------------------
Bb --------------------------------------------------
F --------------------------------------------------

Вверх

I Know

G# G Cm

I know you love the song but not the singer
I know you?ve got me wrapped around your finger
I know you want the sin without the sinner
I know, I know

I know the past will catch you up as you run faster
I know the last in line is always called a bastard
I know the past will catch you up as you run faster
I know, I know

I know you cut me loose from contradiction
I know I?m all wrapped up in sweet attrition
I know it?s asking for your benediction
I know, I know

I know the past will catch you up as you run faster
I know the last in line is always called a bastard
I know the past will catch you up as you run faster
I know, I know

I know the past will catch you up as you run faster
I know the last in line is always called a bastard
I know the past will catch you up as you run faster
I know, I know

Вверх

My Sweet Prince

C  --------------4-------------4-------------4--------------4--
C  -----------5-------------5-------------5--------------5-----
G# --------6-------------5-------------6--------------6--------
D# -----6-------------6-------------6--------------6-----------
A# --4-------------3-------------4--------------0--------------
F  ------------------------------------------------------------

"Me and the dragon..." bit (Let notes ring):

C  -----------------------4-------------------------4---------
C  --------------------5-------------------------5------------
G# --------6--------6---------------6--------6----------------
D# -----6-----------------------6-----------------------------
A# -------------------------0------------0--------------------
F  -0----------0----------------------------------------------


"You are the one..." bit:

C  ----------------------------------4----------
C  -------------------------------5-------------
G# --------6--------6-------6-------------------
D# ----6---------6-------6----------------------
A# ---------------------------------------------
F  -O---------0-------0-------0-----------------

C  ---------------------------------4-----------
C  ------------------------------5--------------
G# --------6--------6------6--------------------
D# ----6--------6-------6-----------------------
A# -0--------0-------0-------0------------------
F  ---------------------------------------------

Never thought you?d make me perspire.
Never thought I?d do you the same.
Never thought I?d fill with desire.
Never thought I?d feel so ashamed.

Me and the dragon can chase all the pain away.
So before I end my day, remember..
My sweet prince, you are the one
My sweet prince
you are the one

Never thought I?d have to retire
Never thought I?d have to abstain
Never thought all this could back fire
Close up the hole in my vain

Me and my valuable friend
can fix all the pain away
So before I end my day
remember
My sweet prince
you are the one
My sweet prince
you are the one
you are the one
you are the one
you are the one
you are the one

Never thought I?d get any higher
Never thought you?d fuck with my brain
Never thought all this could expire
Never thought you?d go break the chain

Me and you baby,
still flush all the pain away
So before I end my day
remember
My sweet prince
you are the one
My sweet prince
you are the one
you are the one
you are the one
you are the one
you are the one
you are the one
you are the one
you are the one
you are the one
My sweet prince
My sweet prince

Вверх

Protect Me From What I Want
mp3

Просто перебираете струны в последовательности : 2-3-4 2-3-4 и т.д.

Am                        F
It?s that desease of the age
Dm
It?s that desease that we crave
C
Alone at the end of the race
Em                     Am
We catch the last bus home

Corporate America wakes
Coffee republic in case
We open the latch on the gate
Of the hole that we call our home

Сhorus:
Am                     F
Protect me from what I want...
Dm
Protect me from what I want...
C
Protect me from what I want...
Em
Protect me protect me



Maybe we?re victims of fate
Remember when we?d celebrate
We?d drink and get high until late
And now we?re all alone

Wedding bells ain?t gonna chime
With both of us guilty of crime
And both of us sentenced to time
And now we?re all alone

Protect me from what I want...
Protect me protect me
Protect me from what I want...
Protect me protect me

Protect me from what I want...
Protect me protect me
Protect me from what I want...
Protect me protect me

Вверх

Special K
mp3

Am
Coming up beyond belief
F
On this coronary thief
Am
More than just a leitmotif
F
More chaotic, no relief
I?ll describe the way I feel
Weeping wounds that never heal
Can the savior be for real
Or are you just my seventh seal?

C                     D
No hesitation, no delay
F
You come on just like special K
C                                D
Just like I swallowed half my stash
F
I never ever want to crash
C                     D
No hesitation, no delay
F
You come on just like special K
Am
Now you?re back with dope demand
F
I?m on sinking sand
C
Gravity
Am
No escaping gravity
C
Gravity
Am
No escaping... not for free
F
I fall down... hit the ground
F
Make a heavy sound
F
Every time you seem to come around

I?ll describe the way I feel
You?re my new Achilles heel
Can this savior be for real
Or are you just my seventh seal?

No hesitation, no delay
You come on just like special K
Just like I swallowed half my stash
I never ever want to crash
No hesitation, no delay
You come on just like special K
Now you?re back with dope demand
I?m on sinking sand
Gravity
No escaping gravity
Gravity
No escaping... not for free
I fall down... hit the ground
Make a heavy sound
Every time you seem to come around

No escaping gravity
No escaping gravity
No escaping gravity
No escaping gravity
Gravity (x4)

Вверх

This Picture

D                      Hm
Farewell the ashtray girl
D
Forbidden snowflake
Hm
Beware this troubled world
G
Watch out for earthquakes
D
Goodbye to open sores
G
To broken centre floor
D
We know we miss her
We miss her picture
G                       D
Sometimes it?s faded
F#m      Hm
Disintegrated
D
For fear of growing old
Sometimes it?s faded
Assassinated
For fear of growing old

Farewell the ashtray girl
Angelic fruitcake
Beware this troubled world
Control your intake
Goodbye to open sores
Goodbye and furthermore
We know we miss her
We miss her picture

Sometimes it?s faded
Disintegrated
For fear of growing old
Sometimes it?s faded
Assassinated
For fear of growing old

Hang on
Though we try
It?s gone
Hang on
Though we try
It?s gone

Sometimes it?s faded
Disintegrated
For fear of growing old
Sometimes it?s faded
Assassinated
For fear of growing old
Can?t stop growing old...

Вверх