Queen


39



39 (2 вариант)



Another One Bites The
Dust



Back Chat



Bicycle Race



Bicycle Race (2
вариант)



Bohemian
Rhapsody



Breakthru



Brighton Rock



Bring Back That Leroy
Brown



Coming Soon



Crazy Little Thing Called
Love



Crazy Little Thing Called
Love (2 вариант)



Dead On Time



Dear Friends



Death On Two Legs



Doing All Right



Dont Stop Me
Now



Dont Stop Me
Now (2 вариант)



Dont Stop Me
Now (3 вариант)



Dont Try Suicide



Dragon Attack



Dreamers Ball



Driven By You



Fat Bottomed Girls



Fight From The
Inside



Flash To The Resque



Friends Will Be
Friends



Friends Will Be
Friends (2
вариант)



Fun It



God Save The Queen



Good Company



Good Old-Fashioned
Lover Boy



Great King Rat



Hammer To Fall



Heaven For Everyone



m In Love With My Car



Innuendo



Is This The World
We Created?



Its A Hard Life



Its Late



I Want It All



Jealousy



Jesus



Keep Yourself
Alive



Killer Queen



Lazing On The
Sunday Afternoon



Leaving Home Aint
Easy



Let Me Entertain You



Let Me Live



Liar



Lily Of The Valley



Living On My Own



Long Away



Love Of My Life



Made In Heaven



Modern Times
RockNRoll



More Of That Jazz



Mother Love



Mustapha



My Baby Does Me



My Melancholy Blues



Need Your Loving
Tonight



Nothin But Blue



Now Im Here



Ogre Battle



One Vision



Party



Play The Game



Procession



Rain Must Fall



Rock It



Sail Away Sweet Sister



Sail Away Sweet Sister
(2 вариант)



Save Me



Scandal



Seaside
Rendezvous



Seven Seas Of Rhye



She Makes Me



She Makes Me (2
вариант)



Sleeping On The
Sidewalk



Sleeping On The
Sidewalk (2 вариант)



Somebody To Love



Somebody To
Love (перевод)



Son And Daughter



Spread Your Wings



Spread Your Wings



Stone Cold Crazy



Stone Cold Crazy
(2 вариант)



Tenement Funster



Teo Torriatte



The Fairy Fellers
Master-Stroke



The Great Pretender



The Invisible Man



The March Of The Black
Queen



The Millionaire Waltz



The Miracle



The Night Comes Down



The Night Comes Down
(2 вариант)



The Prophets Song



These Are The Days Of
Our Lives



These Are The
Days Of Our Lives
(2 вариант)



The Show Must Go On



The Show Must
Go On (2
вариант)



Tie Your Mother Down



Too Much Love Will Kill
You



Was It All Worth It



We Are The Champions



We Will Rock You



White Queen



Who Needs You



Who Wants To Live
Forever



Who Wants To
Live Forever (2
вариант)



You And I



Youre My Best Friend


Вверх


39

fretless bass                 bass-tablature
G|-------|--------|--------|-------|--------|--------|---------|
D|5---5--|--------|--------|-------|--------|7-------|---------|
A|--5---5|5---5--5|7---7--5|3-3----|5---5--5|----5-5-|-3---3--3|
E|-------|--5---5-|--7---7-|----3-3|--5---5-|--0-----|---3---3-|

G|--------|------/4-|---------|------------|---------|-----54--|
D|------4/|5---5---5|---------|---4/7-7-10-|-2---4-5-|-7-----70|
A|5---5---|--5------|-5---5--5|-6----------|---2-----|---------|
E|--5-----|---------|---5---5-|------------|---------|---------|

G|-------4|-----|-----------|------------|----------|------0---|
D|5---5-5-|-----|--2--------|------------|-5---5--5-|---24---0-|
A|--5-----|5---5|3---3-5-3--|5-5-5-5-5-5-|---5---5--|-3--------|
E|--------|--5--|----------3|------------|----------|----------|

G|0---0-4|--2/7-7|---------|-----|-------------|---------------|
D|--0----|0------|5-4-2/5-0|-----|-------------|5-5--5-5--5----|
A|-------|-------|---------|3-2-0|2-2/3-5-/7-/9|------------1/6|
E|-------|-------|---------|-----|-------------|---------------|

G|-------|------|
D|-------|------|
A|-6-5-3-|-3/12-|
E|-------|------|

G|------------|--------|--------|--------|---------|-----------|
D|5--55-55-5-5|--------|--------|--------|---------|-----------|
A|------------|5---5-5-|57---7--|3-3-----|-5---5---|-5/7---5-5-|
E|------------|--5----5|---7---7|----3-3-|---5---5-|-----0-----|

G|--------|--------|-------/4-|-------|--------|-------|---54--|
D|--------|------4/|5---5----5|-------|--4/7-10|2---4-5|7----70|
A|3---33-3|5---5---|--5-------|5---5--|6-------|--2----|-------|
E|--3---3-|--5-----|----------|--5---5|--------|-------|-------|

G|-------4|-----|------------|-----------|---------|-----------|
D|5---5-5-|-----|--2---------|-----------|5---5--5-|---24-5----|
A|--5-----|5---5|3---3-5-3---|5-5-5-5-5-5|--5---5--|-3------5--|
E|--------|--5--|----------33|-----------|---------|-----------|

G|------4|---2/777|-------|---------|------------|-------------|
D|5---5--|--------|5-4-2-0|---------|------------|-------------|
A|--5----|5-------|-------|-3-2-0---|-2/5-7-9/10-|-5-5-5-5-5-5-|
E|-------|--------|-------|---------|------------|-------------|

G|----------|----------|--------|---4754-|---------|-----|-----|
D|-5-5-5-5--|--2345-5--|5-5-5-55|047----7|55442/500|-----|-----|
A|--5-5-5-5-|-3----5-5-|-5-5-5--|--------|---------|3-2-0|--5--|
E|----------|----------|--------|--------|---------|-----|0---3|

G|----------|------------------|
D|----------|--------/9-5-5----|
A|---45-7/9-|-10-1010------5---|
E|----------|----------------3-|

Вверх


39 (2 вариант)

intro
X X X X Am Am Am Am
G G

G       D      Em        C     G    D   C      G
E|---3-------2------0----0----0-----3----2---0------3-|
B|---3-------3------0----0----1-----3----3---1------3-|
G|---0-------2------0----0----0-----0----2---0------0-|
D|---0-----0-0------2----2----2-----0--0-0---2-0_2--0-|
A|---2-2_3--------2-2--2-2--3-3-----2--------3------2-|
E|-3------------------------------3-3---------------3-|

G       D      Em        C     G  D    G G G G (folk strum)
E|---3-------2------0----0----0-----3--2--------|
B|---3-------3------0----0----1-----3--3--------|
G|---0-------2------0----0----0-----0--0--------|
D|---0-----0-0------2----2----2-----0-----3-2-0-|
A|---2-2_3--------2-2--2-2--3-3-----2-----------|
E|-3------------------------------3-3-----------|

G (pickup chord)  D                         Em
In the   year of 39.... Assembled here the volunteers

C~       G          D              Em        Em7 In the
days when lands were few   Here the ship sailed out into the

C~                    D(add G) Dmaj       G
Blue and sunny morn   Sweetest sight ever seen.

G   D                           B7
And night followed day, and the story tellers say

Em                   Am   (then passing notes C B A F#)
That the score brave souls inside

G                         D
For many a lonely day sailed across the milky seas

C            Em    C     D       C  (G) D------
Neer looked back, never feared, never cried.

G                           C            G
Dont you hear my call, though youre many years away,

G                         D
Dont you hear me calling you

G      F#/G   Em    D      C    B/G        Am
Write your letters in the sand for the day I take your hand

Em           D             G
In the land that our grandchildren knew.

In the C~, I add D&G; on top:

E|-3-|
B|-3-|
G|-0-|
D|-2-|
A|-3-|
E|-X-|

Likewise, the D add G is

E|-3-|   (where you add the G)
B|-3-|
G|-2-|
D|-0-|
A|-X-|
E|-X-|

In the year of 39 assembled here the Volunteers
In the days when the lands were few
Here the ship sailed out into the blue and sunny morn
The sweetest sight ever seen.

And night followed day
And the storytellers say
That the score brave souls inside
For many a lonely day sailed across the milky seas
Neer looked back, never feared, never cried.

Dont you hear my call though youre many years away
Dont you hear me calling you
Write your letters in the sand
For the day I take your hand
In the land that our grandchildren knew.

In the year of 39 came a ship in from the blue
The Volunteers came home that day
And they bring good news of a world so newly born
Though their so heavily weigh
For the earth is old and grey, to a new home well away
But my love this cannot be
For so many years have gone though Im older but a year
Your mothers eyes in your eyes cry to me.

Dont you hear my call though youre many years away
Dont you hear me calling you
All the letters in the sand cannot heal me like your hand

For my life
Still ahead
Pity Me.

Вверх


Another One Bites The
Dust

riff 1                            riff 2
G|-----------------------------|  |----------------------------|
D|-----------------------------|  |----------------------------|
A|-----------------------------|  |----------------------------|
E|-5-3-0--0--0--0-0--0--3--0-5-|  |-0---0---0---0-0--0--3--0-5-|

riff 3
G|-----------------------------------|
D|-----------------------------------|
A|-----------------------------------|
E|-3----0---0---0----0-0--0--3--0-5--|

riff 4                riff 5                      riff 6
G|-----------------|  |--------------------|  |----------------|
D|-----------------|  |---------------5----|  |----------------|
A|-3--3--3--4-5----|  |-3--3---3--4-5------|  |----------------|
E|---------------5-|  |------------------5-|  |--5--5---5--6-7-|

riff 7                          riff 8
G|--------------------------|  |---------------------------|
D|--------------------------|  |---------------------------|
A|--------------------------|  |---------------------------|
E|-2----7-55-5-5---2---3--0-|  |----2----7--55-5-5---2---3-|

Вверх


Back Chat

intro
E|-------12--------8----------10-----------13---------15-|
B|----13---------8---------10-----------13---------15----|
G|-14----------9--------11-----------14---------16-------|
D|-------------------------------------------------------|
A|-------------------------------------------------------|
E|-------------------------------------------------------|

solo
E|---------------------------12--------------------------------|
B|-13b15---13vvv-----13--15------13b15--13vvv---12h13-13p12----|
G|--------------------(13)----------------------------------14-|
D|-------------------------------------------------------------|
A|-------------------------------------------------------------|
E|-------------------------------------------------------------|

E|-----------------|
B|-12--------------|
G|----14b16---14vv-|
D|-----------------|
A|-----------------|
E|-----------------|

E|-------------12---------------------------12---------12-----|
B|-12--13--15------15b17vv----15---13-15b17------15b17------x-|
G|---------------------------------------------------------x--|
D|------------------------------------------------------------|
A|------------------------------------------------------------|
E|------------------------------------------------------------|

E|-----12-|
B|-b17----|
G|--------|
D|--------|
A|--------|
E|--------|

E|-----------------------------------------------------------|
B|-17r15p13---12-13------------------------------------------|
G|------------------14v---12---------------------------------|
D|----------------------------13r12p10--12p10------12/14-12--|
A|--------------------------------------------12-------------|
E|-----------------------------------------------------------|

E|-----------------------------------|
B|-----------------------------------|
G|-12--12------_____-----------------|
D|---------10--13r12--10--12---------|
A|----------------------------10--12-|
E|-----------------------------------|

E|-----------19b21---------------------------------------------|
B|-20b22---------------20b22___b22---22r20___p17-20p17---------|
G|-----------------------------------------------------20--19--|
D|-------------------------------------------------------------|
A|-------------------------------------------------------------|
E|-------------------------------------------------------------|

E|---------------|
B|---------------|
G|-17b-------x-x-|
D|-----19/-x-x---|
A|---------------|
E|---------------|

E|-----------------------------------------20b22----20p17-|
B|-20------20----(0)---20b22---20-19---x------------------|
G|-19b21---19b21-----------------------x------------------|
D|-------------------------------------x------------------|
A|-------------------------------------x------------------|
E|-------------------------------------x------------------|

E|-------------------------------------|
B|-20p17-------------------------------|
G|-------20p19p17----------------------|
D|----------------19-17----________----|
A|----------------------19-18-17-15----|
E|----------------------------------17-|

Вверх


Bicycle Race

G|--------5-----6-----------------------|
D|-146-6---6-8--------------------------|
A|-----------------555555-222222--------|
E|-------------------------------444444-|

G|-------------------------------|
D|----10-------11-------10/18-18-|
A|-11----11-13----13-11----------|
E|-------------------------------|

G|-------------------------------------|
D|----10-------11-------10-11-13-13/18-|
A|-11----11-13----13-11----------------|
E|-------------------------------------|

G|---------------------------------13-|
D|-----10--------11----------13-------|
A|-11-----11-13-----13-13/15----15----|
E|------------------------------------|

G|------------------------------------|
D|-----10--------11----------13/18-18-|
A|-11-----11-13-----13-13/15----------|
E|------------------------------------|

G|--------|--------|--------|----------------|
D|--------|--------|--------|----------------|
A|--------|-138----|--------|----------------|
E|-6------|------6-|--6---6-|-2----3----5--6-|

G|--------|--7/------|------------|-------|
D|--------|--5/10----|-----8--8---|-------|
A|--------|----------|------------|-------|
E|-1/6----|--------6-|-6--6-------|-91--1-|

G|------------------------------------------------------------|
D|------------------------------------------------------------|
A|------------------------------------------------------------|
E|-1/11-11-11-11-11-11-11-11-10-10-10-10-10-10-10-9-9-9-9-9-9-|

G|---------------------------------------------|
D|-----10--------11----------------------------|
A|-11-----11-13-----13-------------------------|
E|---------------------11-11-11-11-11-11-11-11-|

G|---------------------------------|
D|---------------------------------|
A|---------------------3-----------|
E|-7-7-7-7-7-7-7-7-4-4---4-4-4-4-4-|

G|-------------------------------13---|
D|-----10--------11--------10/13------|
A|-11-----11-13-----13-11-------------|
E|------------------------------------|

G|----------------------------------|
D|-----10--------11--------10/18-18-|
A|-11-----11-13-----13-11-----------|
E|----------------------------------|

G|---------------------------------13----|-------------------|
D|-10-----10-11-----11----10-11-13-------|-----10------------|
A|-----11--------13----11----------------|-11-----11-13---13-|
E|---------------------------------------|-------------------|

G|------|----14-----------|---------|---|-------------10-5-5---|
D|------|-12--------------|---------|---|--------5-------------|
A|----3-|-------8-6-5-----|---------|---|-55---5--3-5----------|
E|-3----|-------------8-6-|-6-6-5/6-|-3-|----3---------------6-|

G|-------------------------------------------------------------|
D|---8/10-8--7-------------------------------------5---5---5---|
A|-8-----------5--3--3--5-7-5--3---3---3-1---3-----------------|
E|-------------------------------5---------------3---3---3---3-|

G|-------------------------------------------------------------|
D|---------------------------------------------10--------11----|
A|---8-8-8-8-8-8--7-7-7-7-7-7--6-6-6-6-6-6--11----11-13-----13-|
E|-7-----------------------------------------------------------|

G|-------------------------------------------------------------|
D|-------------------------------------------------------------|
A|-----------------------------------------------------------3-|
E|-10-10-10-10-10-10-7-7-7-7-7-7-3-3-3-3-3-3-3-3-3-3-3-3-3-3---|

G|---------7-7-------------2-------|
D|-----7-7-----5-5-------2-------2-|
A|-5-5-------------0-0-4-----0-4---|
E|---------------------------------|

G|-7-7-----7-7---------------------|
D|-----7-7-----7-7-----------------|
A|-----------------0-0-0-2-3-3-4-4-|
E|---------------------------------|

G|-------------------------|-----------------------------|
D|-------------------------|-----------------------------|
A|-5---5-----9---9-7-------|---------1-------1-1-1-4-6-7-|
E|---5---5-7---7-----7-7-7-|-x-2-2-----2-2---------------|

G|---------------|
D|---------------|
A|---------------|
E|-2--2-2--2-2-2-|

G|--------|------------|-10----|-----------------|
D|--------|------------|--8----|-8---------------|
A|-128----|-13b15rbrbr-|-------|-----------------|
E|------6-|------------|-----6-|----2---3---5--6-|

G|---------|-6~~~---|-8-~~~-|
D|---------|-8~~~---|-11~~~-|
A|---------|--------|-------|
E|-1/6-----|--------|-------|

G|---------------|-------|
D|---------------|-------|
A|---------------|-------|
E|-2---3---15-1--|-6/96/-|

G|-----------------------------------------------|
D|-----------------------------------------------|
A|-----------------------------------------------|
E|-11-11-11-11-11----10-10-10-10-10----9-9-9-9-9-|

G|-------------------------------------------------------------|
D|---10-----11-------------------------------------------------|
A|-11--11-13--13---------------------------------------3-------|
E|--------------10-10-10-10-10-10-10-7-7-7-7-7-7-7-4-4---4-4-4-|

G|-------------------------------|---------------------------13|
D|-----10-------11-------10/18-18|---10-------11-------11-13---|
A|6/11----11-13----13-11---------|11----11-13----13-11---------|
E|-------------------------------|-----------------------------|

G|-------------------------------------|
D|----10-------11----13-11-10----10/18-|
A|-11----11-13----13----------11-------|
E|-------------------------------------|

G|-----------------------------|
D|----10-------11----10--------|
A|-11----11-13----13-----------|
E|----------------------134--4-|

Вверх


Bicycle Race (2
вариант)

guitar solo

more gtrs arr for one
E|----------------------17h18p17....-|
B|--------------16h17p16-------------|
G|------14h15p14.....----------------|
D|-7h8p7.....------------------------|
A|-----------------------------------|
E|-----------------------------------|

E|-------7910---------------7910----------|
B|---7810---------7910--7810---------7910-|
G|-79----------679----79----------679-----|
D|7----------79------7----------79------7-|
A|----------7------------------7----------|
E|----------------------------------------|

E|-------121415------91112------111212b14-----------|
B|-----15--------4512--------------------16b17------|
G|---78--------46-------------89--------------18b19-|
D|..9-----------------------89----------------------|
A|------------------------67------------------------|
E|--------------------------------------------------|

Вверх


Bohemian
Rhapsody

Gm
Open your eyes
Bb                    Eb
Look up to the skies and see
Cm(7)                 F
Im just a poor boy, I need no sympathy
B    Bb     A   Bb   B     Bb    A      Bb
easy come, eays go, little high, little low       (bass enters)
Eb             Bb/D        C#dim            F7/C      F7/Eb  Bb
Any way the wind blows, doesnt realy matter to me     to me.

Bb                 Gm
Mama   just killed a man
Cm                              Cm7                F
put a gun against his head, pulled my trigger, now hes dead
Bb               Gm              Cm
Mama  life had just begun, but now
G+5/B   Eb/Bb    Adim
Ive gone and thrown it all away
Eb   Bb/D           Fm        C/E Ab/Eb
Mama Oooo  didnt mean to make you cry,
Ddim    Bb          Bb6   Bb7
if Im not back again this time
Eb
tomarrow,
Bb/D    Cm             Abm   Eb Ab/Eb Eb Cdim Bb7sus4b9 Bb
Carry on, carry on as if nothing really matters.
Gm
Too late, my time has come
Cm                    Cm7                      F
Sent shivers down my spine, bodys achin all the time,
Bb                      Gm
Goodbye everybody, Ive got to go,
Cm              G+5/B     Eb/Bb  Adim    Abmaj7   Eb/G
Gotta leave you all behind and face the truth.
Eb    Bb/D Cm  Fm       C/E Ab/Eb
Mama Ooo     I dont want to die,
Ddim  Bb          Bb6          Bb7
I sometimes wish Id never been born at all.

(guitar solo)

E|------------------------------------------------------|
B|---------------------------11vvvvv---8--11>(12)vvvvvv-|
G|-----------10>(12)==>10>8-----------------------------|
D|-8vvvvvv----------------------------------------------|
A|------------------------------------------------------|
E|------------------------------------------------------|

E|---------------------------------------------------|
B|-13vvvv--15-16-13vvv--15--16--16>(18)vvvvvv>16-13--|
G|---------------------------------------------------|
D|---------------------------------------------------|
A|---------------------------------------------------|
E|---------------------------------------------------|

E|13-15-16-18-18>(20)vvvv-|
B|------------------------|
G|------------------------|
D|------------------------|
A|------------------------|
E|------------------------|

E|-1816-16-15-18-15>16>15---15---------------------------------|
B|------------------------18---18-16-15-16-15>16>15----15------|
G|--------------------------------------------------17----17-15|
D|-------------------------------------------------------------|
A|-------------------------------------------------------------|
E|-------------------------------------------------------------|

E|----------------15-16-18vvvv(18)---------------15-16-18-20vv-|
B|-------15-16-18------------------------15-16-18--------------|
G|-15-17---------------------------15-17-----------------------|
D|-------------------------------------------------------------|
A|-------------------------------------------------------------|
E|-------------------------------------------------------------|

E|-------------------------------------------------------------|
B|-15-16-13vvvv-15-16-13vvv-15-16-16>(18)vvvvvv----------------|
G|----------------------------------------------10-12--12>(13)-|
D|-------------------------------------------------------------|
A|-------------------------------------------------------------|
E|-------------------------------------------------------------|

E|--13---------------------------------------------------------|
B|-----------------14---14-14-14-14vvvv-147--------------------|
G|-----13vvvvvvv--------------------------------6--6vvvvv------|
D|-----------------------------------------------------------7-|
A|-------------------------------------------------------------|
E|-------------------------------------------------------------|

D/A  A Adim     A        D/A   A     Adim
I  see  a little  silhouetto  of  a  man
A     D/A  A    D/A  A         Adim      A  D/A  A
Scarmouch  Scarmouch  will  you  do  the  fandango?
C#/G#    G#       C#/G#   G#      C/G         E7          A
Thunder  bolts  and  lightening  very  very  frightening  me
N.C.
Galileo  Galileo Galileo Galileofigaro Mangnifico oh oh oh
B    Bb        A    Bb   B    Bb   A    Bb
Im  just  a  poor  boy  nobody  loves  me
Ab/Eb   Eb     Ebdim Eb    Ab/Eb   Eb   Ebdim   Eb
Hes  just  a  poor  boy,  from  a  poor  family
Ab                  Eb/G            F7       Bb
spare  him  his  life  from  this  monstrosity

Ab/Eb  Eb  Cdim  Bb7sus4b9

B      Bb     A    Bb   B            Bb         Bbdim
Easy  come  easy  go  will  you  let  me  go?
Bb5  Eb Bb5 Eb Bbsus4  Bb     Bbsus4   Bb
Bismillah   NO,  we  will  not  let  you  go

Let  him  go
Bb  Eb Bb           Bbsus4  Bb Bbsus4 Bb
Bismillah  we  will  not  let  you  go      Let  him  go
Bb  Eb Bb           Bbsus4  Bb Bbsus4 Bb
bismillah  we  will  not  let  you  go      Let  me   go
Bbsus4 Bb Bbsus4 Bb                     Bbsus4 Bb Bbsus4 Bb
will  not  let  you  go   let  me  go   will  not  let  you  go

let  me  go oh  oh  oh  oh oh
A5   D   Db  Gb Bb5 Eb5
no  no  no  no  no  no  no
Eb Ab Eb N.C.  Bb
Oh mamamia mamamia  mamamia  let  me  go
Eb    Ab        D7             Gm         Bb5
Beelzebub  has  a  devil  put  aside  for  me   for  me  for me

E|--------------------------------------------------|
B|--------------------------------------------------|
G|--------------------------------------------------|
D|--------------------------------------------------|
A|------------3---5---6---6-----------3-----------6-|
E|-3---4---6----------------3---4---6----6vvvvvv----|

E|-------------------------------------------------------------|
B|-------------------------------------------------------------|
G|--------------------------------------------------------8--8-|
D|--------------------------------------------------8-----8--8-|
A|------------3---5---6---8-----------5-------------8-----6--6-|
E|-3---4---6----------------5---6---8----6----6-----6----------|

E|-------------------------------------------------------------|
B|-------------------------------------------------------------|
G|----------------------------------6vvvvvvv0------------------|
D|-8--83/8vvvv---6---8--6-------------------------8--------8---|
A|-8------------------------8----4-----------------8-----------|
E|-6-----------------------------------------------6---------0-|

E|-------------------------------------------------------------|
B|--------------------4----3------------3----------------------|
G|--------------------5----3------------3----------------------|
D|-3------------------6----5----3-------3--3>5---3-------------|
A|-1--1/6--6--6--6>0--6----5----3-------1-----------5>3------3-|
E|--------------------4----3----1--1>0--------------------1----|

E|-------------------------------------------------------------|
B|--3--3-------------------------------------------------------|
G|--3--3---------------------------------------3-------------3-|
D|--3--3-----------3-----5>3-------------------3-------------3-|
A|--1--1---3--3/5-------------5---------------1-------------1--|
E|---------------------------------1-----1>0---------1---------|

E|------------------------------------------------------|
B|------------------------------------------------------|
G|------------------------------------------------------|
D|------------------------------------------------------|
A|-6---------------3---5---6---6-------------3----------|
E|----3---4----6-------------------3---4---6----6vvvvvv-|

E|-------------------------------------------------------------|
B|-------------------------------------------------------------|
G|--------------------------------------------------------5vvv-|
D|-----------------------------------------6--8vvv--6--8-------|
A|-6-------3-5--6--8-----------5--7--8--9----------------------|
E|---3-4-6------------5--6--8----------------------------------|

E|--------------------------------------------------|
B|--------------------------------------------------|
G|-----------5----6--------------------6----6--8--9-|
D|--8vvvvv--------------------6---8--9----9---------|
A|--------------------6>7--9------------------------|
E|--------------------------------------------------|

E|-------------------------------------------|
B|-------------------------------------------|
G|------------------------------------3vvvvv-|
D|-----------------3--4--4>3---4---6---------|
A|------3---4---6----------------------------|
E|--4>6--------------------------------------|

w/ harmonizer(8va basso)

E|--------------------------------------------|
B|--------------------------------------8---9-|
G|---------7-------7---8---10---8---10--------|
D|-8---10-----10------------------------------|
A|--------------------------------------------|
E|--------------------------------------------|

hamonizer out. guitar tacet. piano fill.

guitar

E|-------------------------------------------------------------|
B|-------8----11vvvvvvvvvvvv-------------11-----------8----139-|
G|----8----------------------------7--10------------8----------|
D|-8----------------------------8----------------10------------|
A|-------------------------------------------------------------|
E|-------------------------------------------------------------|

E|-------------------------------------------------------------|
B|-8---8---8-----9--8----6-----8>9---8------10>11---103--3vvvv-|
G|-7---8---7----10--8----7-----8>10--8------10>12---117--7vvvv-|
D|-------------------------------------------------------------|
A|-------------------------------------------------------------|
E|-------------------------------------------------------------|

Cm               Gm       Cm        Gm
Nothing really matters, anyone can see
Cm               AbM     Ab/Bb                     Eb Ab/Eb  Eb
nothing raelly matters,  nothing really matters to me

Ebdim   Bb/D    Dbmaj13    C    Dbdim    C     F

Bb     F      Fdim  C7sus4     F
Any way the wind blows

Вверх


Breakthru

E|------10...-----12...-----14...-----15...-----17...-----19...|
B|-13b15--...15b17--...17b19--...18b20--...20b22--...22b24--...|
G|-------------------------------------------------------------|
D|-------------------------------------------------------------|
A|-------------------------------------------------------------|
E|-------------------------------------------------------------|

E|----------------------------151718_p17p1517v-|
B|-----------------18151718--------------------|
G|------------1416-----------------------------|
D|--------1517---------------------------------|
A|-15-1818-------------------------------------|
E|---------------------------------------------|

E|---------------------------_____17-18-20-b22v----------------|
B|---------------------15171820(20)---------------22r__20p18vv-|
G|---------------141517----------------------------------------|
D|---------141517----------------------------------------------|
A|-15131517----------------------------------------------------|
E|-------------------------------------------------------------|

E|------------------------------------------------|
B|-22r__20p18--20b22--20b22--20b22--20b22--20vv..-|
G|------------------------------------------------|
D|------------------------------------------------|
A|------------------------------------------------|
E|------------------------------------------------|

Вверх


Brighton Rock

9"
E|-------------------|
B|-------------------|
G|-16----------------|
D|-16----------------|
A|-16----------------|
E|-14-x-x-x-x-x-x...-|

14"
E|--------------------------|----------------------------------|
B|--------------------------|----------------------------------|
G|-17-17-x-17--x-17--17--17-|-x-17--17--x-17--x-17--x-17--x-17-|
D|-17-17-x-17--x-17--17--17-|-x-17--17--x-17--x-17--x-17--x-17-|
A|-17-17-x-17--x-17--17--17-|-x-17--17--x-17--x-17--x-17--x-17-|
E|-15-15-x-15--x-15--15--15-|-x-15--15--x-15--x-15--x-15--x-15-|

E|-------------------------------------|
B|-------------------------------------|
G|-x-17--x-17--x-17--x-17--x-17--x-17--|
D|-x-17--x-17--x-17--x-17--x-17--x-17--|
A|-x-17--x-17--x-17--x-17--x-17--x-17--|
E|-x-15--x-15--x-15--x-15--x-15--x-15--|

E|---------------------------------------|
B|---------------------------------------|
G|----------17---------------------------|
D|----------17---------------------------|
A|----------17---------------------------|
E|x-x-...-x-15-x-........slide down to 1-|

E|---------------------------------------|
B|-----------------9------------11--9-11-|
G|----------------10------------11--9-11-|
D|-----11-11-11---11---x-x-11---11--9-11-|
A|-x-x-11-11-11---11---x-x--9----9--9--9-|
E|sl.up-9--9--9----9---x-x---------------|

E|-----------------------------------|
B|------------------9---9-11-11-9-11-|
G|-----------------10---9-11-11-9-11-|
D|-11-9------------11---9-11-11-9-11-|
A|--9-9-11-11-11---11---9--9--9-9--9-|
E|--9-9--9--9--9----9----------------|

E|-----------------------------------------|
B|-----------------9----9-11-11-x-11-11-11-|
G|----------------10----9-11-11-x-11-11-11-|
D|-x-x------------11----9-11-11-x-11-11-11-|
A|-x-x-11-11-11---11----9--9--9-x--9--9--9-|
E|-x-x--9--9--9----9-----------------------|

B E B E B E F#
B E B E B E F#

E|----------------------------------|
B|----------------------------------|
G|---------9---6---6-------6-4-9-/--|
D|-------7-9---6---6---6---6-4-9-/--|
A|-------7-7---6---4---3------2-7-/-|
E|-5-------0--------------------0---|

C# F# C# F#
B E B E B E F#
B E B E B E F#

E|-------------------------------------|
B|-------------------7b9--7b9----------|
G|---------9----96------------6-4--9---|
D|---------9-------------------6-4--9--|
A|---------7-------------------4-2--7--|
E|-5-------0-------------------------0-|

E|----------0------------------2--2--0----------2----2-|
B|----------0------2-----2--0--2--2--0-----5----2----2-|
G|-6---6-4--1------2-----2--1--2--2--1-----6----3----3-|
D|-6---6-4--2------2-----2--2--2--2--2-----6----4----4-|
A|-4---4-2--2------0-----------0--2--2-----4----4------|
E|----------0---------------------0--0----------2------|

E|----------------------------|----------------------|-----|
B|--4--4--4--4--4--4--4--4--2-|--2--2--2--2--2--2-0--|-----|
G|--4--4--4--4--4--4--4--4--2-|--2--2--2--2--2--2-1--|--0/-|
D|--4--4--4--4--4--4--4--4--2-|--2--2--2--2--2--2-2--|--/0-|
A|--2--2--2--2--2--2--2--2--0-|--0--0--0--0--0--0-2--|-----|
E|----------------------------|-------------------0--|-----|

E|---------------------------|
B|--2--2--2--2--2--2--2--2-3-|
G|--2--2--2--2--2--2--2--2-4-|
D|--2--2--2--2--2--2--2--2-5-|
A|--0--0--0--0--0--0--0--0-5-|
E|-------------------------3-|

E|-----------------------------------------------------|
B|-----------------------------------------3-0---2---0-|
G|-2b4-r2p0h2p0h2p0------------------0-2---2-1---2---1-|
D|-----------------2p0---------------0-2---2-2---2---2-|
A|--------------------2p0------------0-0---0-2---0---2-|
E|-----------------------3b-3b----0----------0---0---0-|

E|---------12--------------------------------------------------|
B|-15b17------15-1211-15b17r15p12----12-------------------12b--|
G|---------------------------------15----15-14-12-14-12----12b-|
D|------------------------------------------------------14-----|
A|-------------------------------------------------------------|
E|-------------------------------------------------------------|

E|--------------------------------------------------------|
B|--------------------------------------------------------|
G|----------12b--12----------------------------------7--7-|
D|-14-12----12b--12---------------------------6------5--5-|
A|-------14---------14--13--12--11--12--------7------7--7-|
E|--------------------------------------000---0----0------|

E|-------12------------------------------------------------|
B|-15b17----15-12-15b17--15-12----12-------------------12b-|
G|-----------------------------15----15-14-12-14-12----12b-|
D|--------------------------------------------------14-----|
A|---------------------------------------------------------|
E|---------------------------------------------------------|

E|-------------------------------------------------------------|
B|------------------------------8-10-8--8-----15---15b17-----3-|
G|----------12b-----------------9-10-8--9-----14---14b14-----4-|
D|-14-12----12b----------------10------10------------------5-5-|
A|-------14-----14-13-12-10----10------10--------------------5-|
E|--------------------------12-8-------8--------------------0--|

E|----------------------------------------------------------|
B|----------------------------------------------------------|
G|-2b4---4r2--0h2p0-----------------------------7---7----74-|
D|------------------2-0---------------------5-7-7---7----74-|
A|----------------------2-1-0---------------5-7-7---7----74-|
E|----------------------------3-0----0--0---5-5-5---5-------|

E|----------------------------------------------------------|
B|----------------------------------------------------------|
G|----------------------------------------------------------|
D|----------------------------------------------------------|
A|-7-7-7-x-5-5-5-x--4-4-4-4-3-3-3-3-2-2-2-2-1-1-1-1-0-0-0-0-|
E|----------------------------------------------------------|

echo on
>
E|-------|--------------------|----|---------------------------|
B|-------|-2--2--2--2--2--2-0-|----|--2--2--2--2--2--2--2--2-3-|
G|-------|-2--2--2--2--2--2-1-|-0/-|--2--2--2--2--2--2--2--2-4-|
D|-------|-2--2--2--2--2--2-2-|-/0-|--2--2--2--2--2--2--2--2-5-|
A|-3-----|-0--0--0--0--0--0-2-|----|--0--0--0--0--0--0--0--0-5-|
E|---000-|------------------0-|----|-------------------------3-|

E|---trem down to F# - release -|

E|----------|---------|---------|---------|---------|
B|----------|---------|---------|---------|---------|
G|----------|---------|---------|---------|---------|
D|----------|---------|---------|---------|---------|
A|----------|---------|---------|---------|---------|
E|-h2-2-2-2-|-2-2-2-2-|-2-2-2-2-|-2-2-2-2-|-2-2-2-2-|

E|-------------------------------------------------------------|
B|-------------------------------------------------------------|
G|---------2---------2-------------2-------------2-------------|
D|-4---2-4---2-4-----2-----4-------2-----4-------2-----4-------|
A|-------------------------------------------------------------|
E|--2-2-------2-2-2-2--2-2---2-2-2---2-2---2-2-2---2-2---2-2-2-|

E|---------|---------|-----------|---------|
B|---------|---------|-----------|---------|
G|---------|---------|-5r4-2-----|---------|
D|---------|---------|-------4---|-2---2-4-|
A|---------|---------|---------4-|---4-----|
E|-2-2-2-2-|-2-2-222-|-----------|---------|

E|---------|---------|-------------|
B|---------|---------|-5p2p0-------|
G|---------|---------|-------2b3---|
D|---------|---------|-----------4-|
A|---------|---------|-------------|
E|-2-2-2-2-|-2-2-222-|-------------|

E|---------|---------|-------------|-----------|
B|---------|---------|-5p2p0-------|-----------|
G|---------|---------|-------2b3---|-----------|
D|---------|---------|-----------4-|-4p2---2-4-|
A|---------|---------|-------------|-----4-----|
E|22-222---|---------|-------------|-----------|

E|---------|-----------------------------|
B|---------|-----------------------------|
G|---------|-4p2---2---------------------|
D|---------|-----4---4p2---------4---4---|
A|---------|-------------4-3-2-0---------|
E|-2-------|-----------------------2---2-|

E|--------------|-----------|-----------|----------|
B|-10p9---------|-5p4-------|-1p0-------|----------|
G|-----11---11--|----6---6--|----2---2--|-4p2------|
D|--------------|-----------|-----------|----4---4-|
A|--------------|-----------|-----------|----------|
E|--------------|-----------|-----------|----------|

E|-----------|-----------|---------|-------|
B|-----------|-----------|---------|-------|
G|-----------|-----------|---------|-4---4-|
D|-4p2-------|-----------|---------|-------|
A|----4---4--|-4p2-------|---------|-------|
E|-----------|----4---5--|-5-4-2-2-|-------|

E|-------|-------|------2|4-5-4-2-|---------|------------------|
B|-------|-------|--2-5--|--------|-5-2-----|------------------|
G|-------|----1-2|4------|--------|-----5-4-|-2b3--------------|
D|-------|2-4----|-------|--------|---------|-----4-2----------|
A|4-0-2-4|-------|-------|--------|---------|----------4-3-2-0-|
E|-------|-------|-------|--------|---------|------------------|

E|-------|-------|---------------------------------4-----5-----|
B|-------|-------|------------2-----4----5----7----------------|
G|-------|-------|2-----4--------------------------------------|
D|-------|-------|--------------------4-4--4-4--4-4--4-4---4-4-|
A|-------|-------|---------------------------------------------|
E|2-2-2-2|22222-2|--2-2---2-2---2-2----------------------------|

E|-4-----------------------------------------------------------|
B|-------7-----5-----4-----2-----------------------------------|
G|-----------------------------4-------2-----1-----------------|
D|---4-4---4-4---4-4---4-4-------4!------1-4-------4-----2-----|
A|-------------------------------------------------------------|
E|-----------------------------------------------2---2-2---2-2-|

E|-----------------------------------------|
B|-----------------------------------------|
G|-----------------------------------------|
D|-------------------------4---4-4-4-4-4-4-|
A|-4-----2-----------------4---4-4-4-4-4-4-|
E|---2-2---2-2-5-0-0-4-0-0-2---2-2-2-2-2-2-|

E|---------|---------|-----------|---------|---------|---------|
B|---------|---------|-----------|-2-------|---------|---------|
G|---------|---------|-4p2-------|---4-2-0-|---------|---------|
D|2-2------|4p2------|-----4-2-0-|---------|-4-2-----|---------|
A|----4-2-0|----4-2-0|-----------|---------|-----4-2-|-4-2-0---|
E|---------|---------|-----------|---------|---------|-------3-|

fade in fade out volume control
E|-----------2-----------------2----------|
B|-----------3-----------------3----------|
G|-----------2-----------------2----------|
D|-4---------0--------4--------0--------4-|
A|-4---------0--------4--------0--------4-|
E|-2------------------2-----------------2-|

545"
f.i.
E|------7--------------|-------|-------|-------|-------|-------|
B|------10----10-------|-------|-------|-------|-------|-------|
G|------7---------7----|-------|-------|-------|-------|-------|
D|------7------------7-|-2-----|-2-----|-2-----|-2-----|-2-----|
A|------7--------------|-------|-------|-------|-------|-------|
E|-0-------------------|-----0-|-----0-|-----0-|-----0-|-----0-|

E|---------|-0------|-0------|-0-----|
B|-------0-|-----0--|-----0--|-----0-|
G|---------|--------|--------|-------|
D|-2-------|--------|--------|-------|
A|---------|--------|--------|-------|
E|-----0---|--------|--------|-------|

E|-------|---|-7-----|------|------|----------|------|---------|
B|-------|---|----10-|-8--7-|------|----------|------|---------|
G|-------|---|-------|------|-9--7-|----------|----9-|-7-------|
D|-------|-7-|-------|------|------|-9-7------|------|-----7-9-|
A|-----7-|---|-------|------|------|-----10-9-|-7----|---------|
E|-0!----|---|-------|------|------|----------|------|---------|

E|--------|---|-7-----|-------|--------|----------|--------|---|
B|--------|---|----10-|-8---7-|--------|----------|--------|---|
G|-7---9--|-9-|-------|-------|--------|----------|--------|-7-|
D|---9----|---|-------|-------|-----7--|-9-7------|-----7--|---|
A|--------|---|-------|-------|--------|-----10-9-|-7------|---|
E|--------|---|-------|-------|--------|----------|--------|---|

E|-------|-|--------|-------|------10/12|12|-12-14-15-14-12----|
B|-------|-|--------|----7-8|10-12------|--|----------------15-|
G|7------|-|--------|7-9----|-----------|--|-------------------|
D|--9-7--|-|-----7-9|-------|-----------|--|-------------------|
A|-----10|7|7-10----|-------|-----------|--|-------------------|
E|-------|-|--------|-------|-----------|--|-------------------|

E|--------|---------|------------|------------|--------|-------|
B|-12-----|---------|------------|------------|--------|-------|
G|-----14-|-12---11-|------------|------------|--------|-------|
D|--------|---------|-14---12-14-|------------|--------|-------|
A|--------|---------|------------|-14---12-14-|-10---9-|-7---5-|
E|--------|---------|------------|------------|--------|-------|

E|---|--------|---------|---|------|---------|----------|12-12-|
B|---|--------|---------|---|------|---------|-------12-|------|
G|---|--------|---------|---|-9--9-|-9/11-13-|-13/14----|------|
D|---|--------|-------9-|-9-|------|---------|----------|------|
A|-7-|-7/9-11-|-11-12---|---|------|---------|----------|------|
E|---|--------|---------|---|------|---------|----------|------|

E|-16--r1412-|---------|----------|----------|-----------------|
B|-----------|17--1614-|-14--12---|----------|-----------------|
G|-----------|---------|-------14-|-14--1311-|---9--8--6--4--2-|
D|-----------|---------|----------|----------|-----------------|
A|-----------|---------|----------|----------|-----------------|
E|-----------|---------|----------|----------|-----------------|

E|---------------------------|---------|----|-----|------|-----|
B|---------------------------|---------|----|-----|------|-----|
G|-x-------------------------|---------|-0/-|-0/--|--0/--|--0/-|
D|----x--x--x----------------|---------|-/0-|-/0--|--/0--|--/0-|
A|-------------x--2--0-------|---------|----|-----|------|-----|
E|----------------------3--2-|-0-0-0-0-|----|-----|------|-----|

E|---------------------|---------|---------|
B|---------------------|---------|---------|
G|---------------------|---------|---------|
D|-------------5-------|---------|---------|
A|---------5-7---7-----|---------|---------|
E|-0-3-5-7---------0-0-|-0-0-0-0-|-0-0-0-0-|

E|-----------------------------------|
B|-----------------------------------|
G|-----------------------------------|
D|-------------5-------------5-------|
A|---------5-7---7-7-7-7-7-7---7-7-7-|
E|-003-5-7---------------------------|

E|------------------------------------------------------------|
B|------------------------------------------------------------|
G|---------------5--------------------------------------------|
D|---5-----5-----5-----5-----------12----12-14-14-14-14-14-14-|
A|-7---7-7---7-7---7-7---7-7-12/14----14----------------------|
E|------------------------------------------------------------|

E|-------------|----|----|-------------|----|----|-------------|
B|-------------|----|----|-------------|----|----|-------------|
G|-12----------|-0/-|-0/-|-12-13-------|-0/-|-0/-|-12----------|
D|----14-12-14-|-/0-|-/0-|-------12-14-|-/0-|-/0-|-----14---12-|
A|-------------|----|----|-------------|----|----|-------------|
E|-------------|----|----|-------------|----|----|-------------|

E|----------------------------------------------|
B|----------------------------------------12-15-|
G|-12-----------12------------------12-14-------|
D|----14-12-14-----12-14-12-14-12-14------------|
A|----------------------------------------------|
E|----------------------------------------------|

E|-12-14-15-14-12----12----------|
B|----------------15----15-12----|
G|----------------------------14-|
D|-------------------------------|
A|-------------------------------|
E|-------------------------------|

E|----------------------------------------------------------|
B|----------------------------------------------------------|
G|-12-14-12-11-12-11----------------------------------------|
D|-------------------14-12-14-12----------------------------|
A|-------------------------------14-12----------------------|
E|-------------------------------------15-14-15-14-12-10-12-|

E|-------------------|
B|-------------------|
G|-------------------|
D|-------------------|
A|-------------------|
E|-10-10-12-12-10-10-|

E|-------------------------------------------------------------|
B|---------------------9-------9-------9-------9--9--9-------9-|
G|-------------9-------9-------9-------9-------9--9--9-------9-|
D|-----9-------9-------9-------9-------9-------9--9--9-------9-|
A|-7-7-7-7-7-7-7-7-7-7-7-7-7-7-7-7-7-7-7-7-7-7-7--7--7-------7-|
E|-------------------------------------------------------------|

E|--------------------------|----------------------------------|
B|-9------------------------|--------------------------------9-|
G|-9-----7-----7-----7----7-|----------------------------9-----|
D|-9-----7-----7-----7----7-|-----------------6------9---------|
A|-7-----7-----7-----7----7-|-------------7------9/11----------|
E|-------5-----5-----5----5-|-0---0---7------------------------|

E|----------14b16-14-12----------------------------------------|
B|-12-15b17--------------14-12---------------------------------|
G|------------------------------14-13--11-9--------------------|
D|-------------------------------------------11-9--------------|
A|-------------------------------------------------12-11---9-7-|
E|-------------------------------------------------------------|

E|-------------|
B|-------------|
G|---------4---|
D|---------5---|
A|---------5---|
E|-9-7---5-3---|

E|-------------------------------------------------------------|
B|----------------------------------------------------12-12----|
G|--------------------------------------------12------------12-|
D|---------------------5---5-5/9-9-9-12-12-12----12-12---------|
A|---------------5-5-5---5-------------------------------------|
E|-3-3-3-3/7-7-7-----------------------------------------------|

E|-------------------12----------------------|
B|-15-12-15-12-15-15----15-13-12-------------|
G|-------------------------------14-12----12-|
D|-------------------------------------14----|
A|-------------------------------------------|
E|-------------------------------------------|

E|----------------------------------|
B|----------------------------------|
G|----------------------------------|
D|-14-12----------------------------|
A|-------15-14-15-14-12----12-------|
E|----------------------15----15-12-|

E|-------------------------------------|
B|-------------------------------------|
G|-------------------------------------|
D|-------------------------------------|
A|-------------------------------------|
E|-15-12-10-12-10-8-10-8-7-8-7-5-7-5-3-|

E|-----------------------------------|
B|-----------------------------------|
G|-------------4---4---4---4---4---4-|
D|---------5---5---5---5---5---5---5-|
A|-5---5---5---5---5---5---5---5---5-|
E|-3---3---3---3---3---3---3---3---3-|

E|-17b18---18r17p15--------------|-17b18---rp15----------|-----|
B|-----------------17---17p15----|-------------17--p15---|-----|
G|---------------------------17--|--------------------17-|--0/-|
D|-------------------------------|-----------------------|--/0-|
A|-------------------------------|-----------------------|-----|
E|-------------------------------|-----------------------|-----|

E|-------------------------------------------------------------|
B|-------------------------------------------------------------|
G|-15--14-12--10-----------------------------------------------|
D|---------------12--10-8--7-5-------------------------------3-|
A|-------------------------------8-6---5-3-------------------3-|
E|-------------------------------------------6-5---3-1---3---1-|

E|-------------||-------------||-------------------------------|
B|-------------||-------------||-------------------------------|
G|-------------||-------------||-------------------------------|
D|-------9---7-||-------9---7-||--------9---7------------9-9-7-|
A|-------------||-------------||--------------7h9-7------------|
E|-x-7-7---7---||-7-7-7---7---||-5-7--7---7---------7--7-------|

E|-------------------------------------------------------------|
B|-10b12--10b12---------------------------------------10b12-10-|
G|-------------------------------------------------------------|
D|----------------9---9-7---7----------------9-----------------|
A|----------------------------7h9-9----------------------------|
E|-------------------------------------7---7-----7-7-----------|

E|-------------------------------------------------------------|
B|-------------------------------------------------------------|
G|-11-11-9-9-7-7-----------------------------------------------|
D|---------------9---9-7---7-----------------------------------|
A|---------------------------9---9-7---7-----------------------|
E|---------------------------------------10---10-9---9-7---7-5-|

E|-------------------------------------------------------|
B|-------------------------------------------------------|
G|-------------------------------------------------------|
D|---------9-----7---7-------------9-----7---------7-----|
A|---------------------7h9-9-------------------7h9-------|
E|-5-7---7-----7-------------7---7-----7-----7---------7-|

E|------------|--------|------------5---5--5---5--5---5--5---5-|
B|------------|--------|------7--7--5-7-5--5-7-5--5-7-5--5-7-5-|
G|------------|---0/---|------7--7--6-7-6--6-7-6--6-7-6--6-7-6-|
D|---9-----7--|---/0---|---9--7--7--7-7-7--7-7-7--7-7-7--7-7-7-|
A|---9-----7--|--------|---9--7--7--7-7-7--7-7-7--7-7-7--7-7-7-|
E|-7-----7----|10 times|-7----5--5--5-5-5--5-5-5--5-5-5--5-5-5-|

E|-5-----------------------------------------------------------|
B|-5-----------------------------------------------------------|
G|-6-------------------7-7-------------------------------------|
D|-7-------9-------7---7-7-------------------------9---9-7---9-|
A|-7-------7-------5-------------------7-----------------------|
E|-5----------------------/7-7-7-7-7-7-----7-7-7-7-------------|

E|-----------------------------------------------10p7----------|
B|------------------------10p7------------------------10-7-----|
G|--------9---9-7--------------9-7---------------------------9-|
D|----------8------------------------9-------------------------|
A|-------------------------------------------------------------|
E|-7-7--7---------7-7-7-7----------------7-7---7---------------|

E|-------------------------------------------------------------|
B|-----------------------------------------10p7----7-----------|
G|-------9p7---7--------------------------------10-----9p7---7-|
D|-----------9---9-----7-----------------------------------9---|
A|-----------------9-9----9p7----------------------------------|
E|-0-7-7----------------------7-7---7-10-----------------------|

E|--------------------|
B|--------------------|
G|--------------------|
D|-9p7---7------------|
A|-----9-----9p7------|
E|---------------10-7-|

E|---------------------------------------------------------|
B|---------------------------------------------------------|
G|---------------------------------------------------------|
D|---------------------------------------------------------|
A|---------------------------------6-6-6-6-6-7-9-9-9-9-9-9-|
E|-7-7-7-7-7-7-7-7-7-7-7-7-7-7-7-7-------------------------|

E|---------------------------------------------------|
B|---------------------------------------------------|
G|---------------------------------------------------|
D|-9-9-9-9-9-9-9/13-13-13-13-13-13-16-16-16-16-16-16-|
A|---------------------------------------------------|
E|---------------------------------------------------|

E|-------------------|
B|-------------------|
G|-16-16-16-16-16-16-|
D|-------------------|
A|-------------------|
E|-------------------|

E|-------------------14-14-14-14-14--|
B|-16-16-16-16-16-16-----------------|
G|-----------------------------------|
D|-----------------------------------|
A|-----------------------------------|
E|-----------------------------------|

with the same finger
E|--16b18_________let ring__________________|--|
B|-(16b17)---x-x-x-x-x-x-x-x......slowing down-|
G|------------------------------------------|--|
D|------------------------------------------|--|
A|------------------------------------------|--|
E|------------------------------------------|--|

E|-------18b19-r1816--------14----------12---------10----------|
B|-------------------17---------15----------13---------11------|
G|-16-16-----------------16---------14----------12----------10-|
D|-------------------------------------------------------------|
A|-------------------------------------------------------------|
E|-------------------------------------------------------------|

E|-8-------8-----8--------6------------------------------------|
B|---10------8-----8----------8--6-----------------------------|
G|------10-----9------8-------------8--7-----------------------|
D|----------------------------------------10--8----------------|
A|-----------------------------------------------10--8---------|
E|------------------------------------------------------11--10-|

E|------|-------------|-------|---|
B|------|-------------|-------|-6-|
G|------|-------------|---0/--|-7-|
D|------|-10-10-10-10-|---/0--|-8-|
A|------|-10-10-10-10-|-------|-8-|
E|-8--6-|--8--8--8--8-|4 times|-6-|

E|--------------|--8---------|--------|
B|--8---8--6--6-|--8---10--8-|--------|
G|--9---9--7--7-|--9---10--9-|---0/---|
D|-10--10--8--8-|-10---10-10-|---/0---|
A|-10--10--8--8-|------------|--------|
E|--8---8--6--6-|------------|3 times-|

E|-------------------------------------------------------------|
B|-------------------------------------12/13-13-15/17-17-/20-20|
G|-------------------------------12-12-------------------------|
D|--------------------9-10-12-14-------------------------------|
A|---------------10-10-----------------------------------------|
E|3/7-8-10/12-12-----------------------------------------------|

E|-19b20-20--|-|-------|-3------|-------|-|
B|------------|-|----5--|-3---5--|--------|
G|------------|-|-4--5--|-4---5--|---0/---|
D|------------|-|-------|-5---5--|---/0---|
A|------------|-|-------|--------|--------|
E|------------|-|-------|--------|3 times-|

1102"
E|-------------------------------------------|
B|-------------------------------------------|
G|-------------------------------------777999|
D|----------------------------555777999------|
A|----------------------555777---------------|
E|-000000...000333555777---------------------|

E|-----------------------------|
B|-----------------------------|
G|-12-12-12-12/14-14-14-12b----|
D|-12-12-12-12/14-14-14-----14-|
A|-----------------------------|
E|-----------------------------|
echo off
<
E|-------------------------------------------------------------|
B|-----------14-12----14--------14--------12-12----14-12-12----|
G|-14-12b----14-12----14-12b----14-12b----12-12-14-14-12-12-14-|
D|--------14-------14--------14--------14-------14----------14-|
A|-------------------------------------------------------------|
E|-------------------------------------------------------------|

E|-------|------|-|
B|-15----|------|-|
G|-14b16-|--0/--|-|
D|-------|--/0--|-|
A|-------|------|-|
E|-------|7 times-|

C# F# C# C# C# F# C# F#
B E B E B E F#
B E B E B E F#

E|-----|------------------------------------------12---12------|
B|-----|------------------------------------------12---12---12-|
G|-----|----------------------------------------------------12-|
D|-----|--7----9-9-7-7-9-9-9-7--7-9-9-9-7-----9----------------|
A|-----|--7----9-9-7-7-9-9-9-7--7-9-9-9-7-----9----------------|
E|-5-7-|-7---7-7-7-7-7-7-7-7-7--7-7-7-7-7---7------------------|

E|----------------------------------------|
B|--------------------------------2-------|
G|----0-----0---------------------2-------|
D|-0----0h2---2p0------(0)--------2-------|
A|----------------2-0h2---2-0-----0-------|
E|----------------------------3-0------3b-|

E|-------------------------------|-----------------------------|
B|--------------------------2----|-----------------------------|
G|----0---------------------2----|-------0---------------------|
D|-2----2p0-----------------2----|-(0)h2---2p0-----------------|
A|----------2-2-0---2-0-----0----|---------------0-2---2-0-----|
E|----------------3-----3-0---3b-|-------------------------3-0-|

E|----------------------------------|
B|--------------------------------3-|
G|-2b3rp0-------------------------4-|
D|--------2-0---------------------5-|
A|------------2-1-0---------------5-|
E|------------------3-0-0-0-0-0-0-0-|

Вверх


Bring Back That Leroy
Brown

Refrain:
C     G7    C     G7          C         G7    C       G7+5
Bring back, bring back, bring back that Leroy Brown - Yeah!
Bring back, bring back, gotta ring that Leroy Brown - Yeah!

Verse:
C                      G+            C         1dim   Am
Bet your bottom dollar bill youre a playboy - yeah,  yeah
C                 F      G7     C     C  Dm7  1dim   C/E
Daddy cool with a ninety dollar smile (oooh------------)
Am                   G#dim             Am                  C#dim
Took my money out of gratitude, and he git right out of town
C         B7         Bb7       A7
Well, I gotta getty up, steady up, shoot him down
Dm7      1dim  G7  C   G7+5
Gotta hit that lat - i - tude babe.


Big bad Leroy Brown, he got no common sense - no, no
Got no brains but he sure got a lot of style
Cant stand no more in this here jail
I gotta rid myself of this sentence
Gotta get out of the heat, get into the shade
gotta get me there dead or alive, babe!

C
Woo-woo, big bad Leroy, woo-ooo
Am  E7     Am  Am  2dim  G7  G7  C  G7+5
Woo-woo, big bad Leroy  -  Brown!
C                    G7                 C
Big Momma Lula Belle, she had a nervous breakdown
E7/G#   Am
(nervous breakdown)
C                 G7           C   Em/B  Am
Leroys taken her honey-chile away
F              Am             Dm7            Am
But she met him at the station,  put a shotgun to his head
Dm            F     B7               G7
And unless I be mistaken, this is what she said:

C                                     (C)  2dim  Am
Big bad, big boy, big bad Leroy Brown,
G7                       C    G7
Im gonna get that cutie pie

Bring back, bring back, bring back that Leroy Brown - Yeah!

C                G7              C       2dim  Am
Big bad caused a mighty fine sensation - yeah yeah
C              G7          C
Gone and got himself elected president
Dm7   1dim  C/E  F            A7  D7  G7
(we want) Le  - roy for president
C
Next time, you gotta hit a bitty baddy weather
(C)
This time, like a shimmy shammy leather
Dm7      Am
Hes a big boy, bad boy, Leroy
C          G/B       Am      1dim
I dont care where you get him from
C                      B7      C    G7   C
Bring that Leroy Brown back  - want him back.

Вверх


Coming Soon

G D G D D C G D
A E C G A E
D A D E...

fill 1, 3
E|---------------------------------------|
B|---------------------------------------|
G|-------9-9-----------------------------|
D|-------9-9-------12---------11-------9-|
A|-10-11-----10-11------10-11----10-11---|
E|---------------------------------------|

fill 2
E|---------------------------------------|
B|---------------------------------------|
G|-------9-9-----------------------------|
D|-------9-9---------12----11---9--------|
A|-10-11-------10-11----11----x---10-9-7-|
E|---------------------------------------|

fill4
E|---------------------------------------|
B|-----------------------------9---------|
G|-------9-9--------------------119811-9-|
D|-------9-9-------12----11--------------|
A|-10-11-----10-11----11----9------------|
E|---------------------------------------|

C D# G
A E C G A E D

Solo
E|-------5---------5------------------------------------|
B|-------5-----------------------------------8b10---b9--|
G|-7b9-------7b9-------7p5----5b6-5bvvvv----------------|
D|------------------------------------------------------|
A|------------------------7-----------------------------|
E|------------------------------------------------------|

E|--------------------------|
B|--5---b10-b10-b10r9-5-5-/-|
G|--------------------------|
D|--------------------------|
A|--------------------------|
E|--------------------------|

E|-------8----------------------------------------------|
B|---------118118-----------11b13---11-8---------11b13--|
G|-10b12---------11108108b---------------8b-------------|
D|------------------------------------------10----------|
A|------------------------------------------------------|
E|------------------------------------------------------|

E|------------------(0)-------------|
B|--b12---8---11b13-b13-b12_r-8-8-/-|
G|----------------------------------|
D|----------------------------------|
A|----------------------------------|
E|----------------------------------|

E|----15--15--15--15--15--15--15--15---------------------|
B|-15b17-b17-b17-b17-b17-b17-b17-b17-b17___r15p1315--13b-|
G|-------------------------------------------------------|
D|-------------------------------------------------------|
A|-------------------------------------------------------|
E|-------------------------------------------------------|

E|-15b17-b17-b17-b17___r15p12------|
B|---------------------------15b17-|
G|---------------------------------|
D|---------------------------------|
A|---------------------------------|
E|---------------------------------|

E|-----------------------------------------------------------|
B|-15b17___r151215121512151214121312--12------------14b15vvv-|
G|----------------------------------15--151412--12-----------|
D|--------------------------------------------14-------------|
A|-----------------------------------------------------------|
E|-----------------------------------------------------------|

Вверх


Crazy Little Thing Called
Love

D			G	 C	   G
This thing,  called love, I just  cant  handle it,
D			G	   C	   G
this, thing,  called love, I must, get round to it,
D	Bb	      C		   D
I anit ready,  Crazy little thing called love.
D			G	C		G
This thing, called love, it cries, in craddle at night,
D			   G			C	G
it swings, it jives, it shakes, all overlike a jelly-fish,
D	  Bb		C	      D
I kinda like it, Crazy little thing called love.
G		 C			  G
There goes my baby, she knows how to rock and roll,
D		   G		A
She drives me crazy, she gives me hot and cold fever,
F				E A
then she leaves me in a cool, cool sweat.
D
I gotta be cool, relax, get hip,
G	C	G	   D
get on my tracks, take a back seat, hitch-hike
G			    C	   G		   D
And take a long ride on my motor bike until Im ready,
Bb		C	     D
Crazy Little thing called love.

(during guitar solo)

G C  G Bb E A F   E
A D  G C  G D G C G
D Bb C D

outro
Bb		C	     D
Crazy little thing called love.

Вверх


Crazy Little Thing Called
Love (2 вариант)

INTRO:

E|---|-2-2-3-2---2-2---|-2-2-3-2---2-2---|-2-2-3-2---2-2---|
B|---|-3-3-3-3---3-3---|-3-3-3-3---3-3---|-3-3-3-3---3-3---|
G|4:-|-2-2-2-2---2-2-2-|-2-2-2-2---2-2---|-2-2-2-2---2-2-2-|
D|4:-|-0-0-0-0---0-0-0-|-0-0-0-0---0-0-0-|-0-0-0-0---0-0-0-|
A|---|---------------0-|---------------0-|---------------0-|
E|---|-----------------|-----------------|-----------------|

E|2-2-3-2---2-2---|
B|3-3-3-3---3-3---|
G|2-2-2-2---2-2-0-|
D|0-0-0-0---0-0-0-|
A|--------------0-|
E|----------------|

1st, 2nd | 5th Verses:

This thing ...
This thing (this thing) ...
This thing ...

(with fill 1 3rd time)
E|-2-2-3-2-2-2---|-2-2-3-2-2-2---|-3-3-3-3-3-3-3-|-------------|
B|-3-3-3-3-3-3---|-3-3-3-3-3-3---|-3-3-3-3-3-3-3-|-1-x-1-x-----|
G|-2-2-2-2-2-2-2-|-2-2-2-2-2-2---|-0-0-0-0-0-0-0-|-0-x-0-x-0-x-|
D|-0-0-0-0-0-0-0-|-0-0-0-0-0-0-0-|-0-0-2-0-0-0-0-|-2-x-2-x-0-x-|
A|-------------0-|-------------0-|---------------|-3-x-3-x-2---|
E|---------------|---------------|-3-3---3-3-3-3-|-------------|

X=Go to Coda in v5
(QB) (with fill 2 3rd time)
E|---|                    -|-2-2-2-2-2-2-2---|-----------------|
B|---|                    -|-3-3-3-3-3-3-3-0-|-3-3-3-3-5-5-5-5-|
G|---| Repeat last 4 bars -|-2-2-2-2-2-2-2-0-|-3-3-3-3-5-5-5-5-|
D|---|                    -|-0-0-0-0-0-0-0-0-|-3-3-3-3-5-5-5-5-|
A|---|                    -|---------------0-|-1-1-1-1-3-3-3-3-|
E|3^-|                    -|-----------------|-----------------|

E|-2-2-2-2-2-2-2-2-2-2-|-2--------|-2-2-2-2-2-2-2-2-|-2-|
B|-3-3-3-3-3-3-3-3-3-3-|-3--------|-3-3-3-3-3-3-3-3-|-3-|
G|-2-2-2-2-2-2-2-2-2-2-|-2-------*|-2-2-2-2-2-2-2-2-|-2-|
D|-0-0-0-0-0-0-0-0-0-0-|-0-------*|-0-0-0-0-0-0-0-0-|-0-|
A|---------------------|----------|-----------------|---|
E|---------------------|----------|-----------------|---|

BRIDGE:

baby....

E|-3-3-3-3---3-3-3-|-3-3-3-3---3-3-3-|---------------3-|
B|-3-3-3-3---3-3-3-|-3-3-3-3---3-3-3-|-1---1---1-1-1-3-|
G|-0-0-0-0---0-0-0-|-0-0-0-0---0-0-0-|-0---0---0-0-0-0-|
D|-0-0-0-0---0-0-0-|-0-0-0-0---0-0-0-|-2---2---2-2-2-0-|
A|-2-2-2-2---2-2-2-|-2-2-2-2---2-2-2-|-3---3---3-3-3-2-|
E|-3-3-3-3---3-3-3-|-3-3-3-3---3-3-3-|---------------3-|

E|---3-3-3---3-3-3-|-----------------|-----------------|
B|---3-3-3---3-3-3-|-3-3-3-3---3-3-3-|-3-3-3-3---3-3-3-|
G|---0-0-0---0-0-0-|-3-3-3-3---3-3-3-|-3-3-3-3---3-3-3-|
D|---0-0-0---0-0-0-|-3-3-3-3---3-3-3-|-3-3-3-3---3-3-3-|
A|---2-2-2---2-2-2-|-1-1-1-1---1-1-1-|-1-1-1-1---1-1-1-|
E|---3-3-3---3-3-3-|-----------------|-----------------|

hot|cold fever |  leaves me in ...        (x=Drum fills)
.                 ---3---   x xxx
|-0---0-----------|-1---------------|-----------------|
|-0---0---2---2---|-1---------------|-----------------|
|-1---1---2---2---|-2---------------|-----------------|
|-2---2---2---2---|-3---------------|-----------------|
|-2---2---0---0---|-----------------|---5--4--3-------|
|-0---0-----------|-----------------|-----------------|

x--3---   x xxx   ---3--  ---3--          I gotta be
G1
E|-----------------|-0-0--0--0-0--0--|---------------|
B|-----------------|-0-0--0--0-0--0--|-2-------------|
G|-----------------|-1-1--1--1-1--1--|-2-------------|
D|-----------------|-2-2--2--2-2--2--|-2-------------|
A|-----------------|-2-2--2--2-2--2--|-0-------------|
E|---5--4--3-------|-0-0--0--0-0--0--|-----3---2---0-|
G2
E|-----------------|-----------------|---------------|
B|-----------------|-.-.--.--.-.--.--|---------------|
G|-----------------|-9-9--9--9-9--9--|-.-.-----------|
D|-----------------|-----------------|-7-7-5---------|
A|-----------------|-----------------|---------9---7-|
E|-----------------|-----------------|---------------|

3rd Verse:

cool..

E|-2-2-3-2---2-2---|-2-2-3-2---2-2---|-3-3-3-3---3-3-3-|
B|-3-3-3-3---3-3---|-3-3-3-3---3-3---|-3-3-3-3---3-3-3-|
G|-2-2-2-2---2-2-2-|-2-2-2-2---2-2---|-0-0-0-0---0-0-0-|
D|-0-0-0-0---0-0-0-|-0-0-0-0---0-0-0-|-0-0-2-0---0-0-0-|
A|---------------0-|---------------0-|-----------------|
E|-----------------|-----------------|-3-3---3---3-3-3-|

E|-----------------|-----------------|-------13s-|
B|-----------------|-----------------|-------12s-|
G|-----------------|-----1210(tr11)--|-----------|
D|-----------------|-----------------|-----------|
A|-----------------|-----------------|-----------|
E|-----------------|-----------------|-----------|

E|-----------------|-2-2-3-2---2-2---|-2-2-3-2---2-2---|
B|-1-x-1-x---------|-3-3-3-3---3-3---|-3-3-3-3---3-3---|
G|-0-x-0-x-0-x-----|-2-2-2-2---2-2-2-|-2-2-2-2---2-2---|
D|-2-x-2-x-0-x-----|-0-0-0-0---0-0-0-|-0-0-0-0---0-0-0-|
A|-3-x-3-x-2-------|---------------0-|---------------0-|
E|-------------3^--|-----------------|-----------------|

E|-----------------|-----1010-|
B|-----------------|-----1010-|
G|-----------------|----------|
D|-----------------|----------|
A|-----------------|----------|
E|-----------------|----------|

E|-3-3-3-3---3-3-3-|------------------|-2-2-2-2-2--2--2----|
B|-3-3-3-3---3-3-3-|-1-x-1-x----------|-3-3-3-3-3--3--3--0-|
G|-0-0-0-0---0-0-0-|-0-x-0-x-0-x------|-2-2-2-2-2--2--2--0-|
D|-0-0-2-0---0-0-0-|-2-x-2-x-0-x------|-0-0-0-0-0--0--0--0-|
A|-----------------|-3-x-3-x-2--------|------------------0-|
E|-3-3---3---3-3-3-|-------------3^---|--------------------|

E|-----------------|-------------10-10|---------13-12p10-10-|
B|-----------------|--------/1010-10--|----------------13---|
G|-----------------|------------------|---------------------|
D|-----------------|------------------|---------------------|
A|-----------------|------------------|---------------------|
E|-----------------|------------------|---------------------|

E|---------------------|-2-2-2-2-2-2-2-2-|-2-|
B|-3-3-3--3-5----5-5-5-|-3-3-3-3-3-3-3-3-|-3-|
G|-3-3-3--3-5----5-5-5-|-2-2-2-2-2-2-2-2-|-2-|
D|-3-3-3--3-5----5-5-5-|-0-0-0-0-0-0-0-0-|-0-|
A|-1-1-1--1-3----3-3-3-|-----------------|---|
E|---------------------|-----------------|---|

E|---------------------|-----------------|---8/101010101010-|
B|-1312-1110-----------|-----------------|---8/101010101010-|
G|----------13p121012--|-----------------|------------------|
D|-------------------12|-----------------|------------------|
A|---------------------|-----------------|------------------|
E|---------------------|-----------------|------------------|

Solo:

E|--------------------|-----------------|-2--x-2-x-3-x-3-x-|
B|-3-3-3-3------3-3-3-|-3-3-3-3---3-3-3-|-3--x-3-x-3-x-3-x-|
G|-3-3-3-3------3-3-3-|-3-3-3-3---3-3-3-|-2--x-2-x-0-x-0-x-|
D|-3-3-3-3------3-3-3-|-3-3-3-3---3-3-3-|-0--x-0-x-0-x-0-x-|
A|-1-1-1-1------1-1-1-|-1-1-1-1---1-1-1-|----------2-x-2-x-|
E|--------------------|-----------------|----------3-x-3-x-|

E|--------------------|-----------13----|--8/1010101010-----|
B|-13^-13^-13^rp111311|~~~~~----13^-----|--8/10----10--1210-|
G|--------------------|-----------------|-------------------|
D|--------------------|-----------------|-------------------|
A|--------------------|-----------------|-------------------|
E|--------------------|-----------------|-------------------|

E|-2-2-3--2-2-2-2-2-|--------------------|-----------------|
B|-3-3-3--3-3-3-3-3-|-3-3-3-3------3-3-3-|-3-3-3-3---3-3-3-|
G|-2-2-0--2-2-2-2-2-|-3-3-3-3------3-3-3-|-3-3-3-3---3-3-3-|
D|-0-0-0--0-0-0-0-0-|-3-3-3-3------3-3-3-|-3-3-3-3---3-3-3-|
A|-----2------------|-1-1-1-1------1-1-1-|-1-1-1-1---1-1-1-|
E|-----3------------|--------------------|-----------------|

E|----------1010----|---13--13-----------|-------13------10/-|
B|------10121010--13^sss--13^-13^rp111311|~~~~~13^-------10/-|
G|-111012-----------|--------------------|-----------------|-|
D|------------------|--------------------|-----------------|-|
A|------------------|--------------------|-----------------|-|
E|------------------|--------------------|-----------------|-|

E|-0---0------------|-1------------------|-----------|
B|-0---0---2----2---|-1------------------|-----------|
G|-1---1---2----2---|-2------------------|-----------|
D|-2---2---2----2---|-3------------------|-----------|
A|-2---2---0----0---|--------------------|---5--4--3-|
E|-0---0------------|--------------------|-----------|

E|/12121012---------|-.---.--------------|----------|
B|/12------13^10----|-10--10--12^rp101210|~~~~~~~~~-|
G|--------------119-|--------------------|----------|
D|------------------|--------------------|----------|
A|------------------|--------------------|----------|
E|------------------|--------------------|----------|

x--3---   x xxx   ---3--- ---3--- I gotta be
G1
E|-----------------|-0-0--0--0-0--0--|-.-|
B|-----------------|-0-0--0--0-0--0--|-2-|
G|-----------------|-1-1--1--1-1--1--|-2-|
D|-----------------|-2-2--2--2-2--2--|-2-|
A|-----------------|-2-2--2--2-2--2--|-0-|
E|---5--4--3-------|-0-0--0--0-0--0--|---|

4th Verse:

cool ... (same words as v3)

(UNACCOMPANIED - Hand Claps on the off beat)

(Go back for v5 before going to Coda)

Coda / Out-Chorus:

Crazy little thing called love ...
E|-----------------|-2-2-2-2-2-2-2-2-|-----------------|
B|-3-3-3-3-5-5-5-5-|-3-3-3-3-3-3-3-3-|-3-3-3-3-5-5-5-5-|
G|-3-3-3-3-5-5-5-5-|-2-2-2-2-2-2-2-2-|-3-3-3-3-5-5-5-5-|
D|-3-3-3-3-5-5-5-5-|-0-0-0-0-0-0-0-0-|-3-3-3-3-5-5-5-5-|
A|-1-1-1-1-5-5-5-5-|-----------------|-1-1-1-1-5-5-5-5-|
E|-----------------|-----------------|-----------------|

E|-----------------|----------------|
B|-----------------|-----12------.--|
G|-----------------|-----1210(tr11)-|
D|-----------------|-------------12-|
A|-----------------|----------------|
E|-----------------|----------------|

E|-2--2-2-2-2-2-2-2-|-----------------|-2-2-2-2-2-2--2--2-|
B|-3--3-3-3-3-3-3-3-|-3-3-3-3-5-5-5-5-|-3-3-3-3-3-3--3--3-|
G|-2--2-2-2-2-2-2-2-|-3-3-3-3-5-5-5-5-|-2-2-2-2-2-2--2--2-|
D|-0--0-0-0-0-0-0-0-|-3-3-3-3-5-5-5-5-|-0-0-0-0-0-0--0--0-|
A|------------------|-1-1-1-1-5-5-5-5-|-------------------|
E|------------------|-----------------|-------------------|

E|--8/101010--101010|-----------------|---------1312p10-10-|
B|--8/1010--10101010|-----------------|----------------13--|
G|------------------|-----------------|--------------------|
D|------------------|-----------------|--------------------|
A|------------------|-----------------|--------------------|
E|------------------|-----------------|--------------------|

E|-----------------|-2-2-2-2-2-2-2-2-|-----------------|
B|-3-3-3-3-5-5-5-5-|-3-3-3-3-3-3-3-3-|-3-3-3-3-5-5-5-5-|
G|-3-3-3-3-5-5-5-5-|-2-2-2-2-2-2-2-2-|-3-3-3-3-5-5-5-5-|
D|-3-3-3-3-5-5-5-5-|-0-0-0-0-0-0-0-0-|-3-3-3-3-5-5-5-5-|
A|-1-1-1-1-5-5-5-5-|-----------------|-1-1-1-1-5-5-5-5-|
E|-----------------|-----------------|-----------------|

E|-10--------------|-----------------|--------|
B|---13------------|-----------------|--------|
G|-----------------|-----121012x-10^-|--------|
D|-----------------|---12----------12|~~~~~~~-|
A|-----------------|-----------------|--------|
E|-----------------|-----------------|--------|

E|-2--2-2-2-2-2-2-2-|-----------------|-2-2-2-2-2-2-2-2-|
B|-3--3-3-3-3-3-3-3-|-3-3-3-3-5-5-5-5-|-3-3-3-3-3-3-3-3-|
G|-2--2-2-2-2-2-2-2-|-3-3-3-3-5-5-5-5-|-2-2-2-2-2-2-2-2-|
D|-0--0-0-0-0-0-0-0-|-3-3-3-3-5-5-5-5-|-0-0-0-0-0-0-0-0-|
A|------------------|-1-1-1-1-5-5-5-5-|-----------------|
E|------------------|-----------------|-----------------|

E|--8/10----10-----|-----------------|-1313-13-1212--10-|
B|--8/10----10-----|-----------------|-1313-13-121213^--|
G|-----------------|-----------------|------------------|
D|-----------------|-----------------|------------------|
A|-----------------|-----------------|------------------|
E|-----------------|-----------------|------------------|

E|------------------|-2-2-2-2-2---2-2-2-| (Fade out)-|
B|-3--3-3-3-5-5-5-5-|-3-3-3-3-3---3-3-3-|------------|
G|-3--3-3-3-5-5-5-5-|-2-2-2-2-2---2-2-2-|------------|
D|-3--3-3-3-5-5-5-5-|-0-0-0-0-0---0-0-0-|------------|
A|-1--1-1-1-5-5-5-5-|-------------------|------------|
E|------------------|-------------------|------------|

E|------------------|--------------------|
B|-13^13^~~~--------|--------------------|
G|------------------|-----10^-------10^--|
D|------------------|---------12p10---12-|
A|------------------|-------------12-----|
E|------------------|--------------------|

xxxxxxxxxxxxxxxxxxxxxxxxxxxxxxxxxxxxxxxxxxxxxxxxxxxxxxxxxxxxxxx

Fill 1 (G2):

E|---8/1010-------|--8/10--1010-----|-------10-|
B|---8/1010-------|--8/10--1010-----|-------10-|
G|----------------|-----------------|-------10-|
D|----------------|-----------------|----------|
A|----------------|-----------------|----------|
E|----------------|-----------------|----------|

Fill 2 (G2):
E|------------------|------------------|----------|
B|------------------|------------------|----------|
G|-----10^----------|---12^----1210----|----------|
D|---12---12~~~~----|--------------1212ssssss9-12-|
A|------------------|------------------|----------|
E|------------------|------------------|----------|

E|-----------------|----------|
B|-----------------|----------|
G|----------7-97-7~|~~~~~~~~~-|
D|------5-/9-------|----------|
A|-----------------|----------|
E|-----------------|----------|

Вверх


Dead On Time

E|---------|---------|-------|
B|--7b8----|-12b13---|-15b16-|
G|--7b9----|-12b14---|-13b14-|
D|-10b11---|-11b12---|-15b16-|
A|-11b12---|-11b12---|-13b14-|
E|---------|---------|-------|

E|-------------------------------------------------------------|
B|-------------------------------------------------------------|
G|----------------------42b2--------------------------4542-----|
D|------------------------4-42-2-------42-2-2-------------42---|
A|-0--------------------------4-420------4---432020---------420|
E|--2-22-2202222-220222x-----------2-20------------202---------|

E|----    Riff A   -----------------|------------|
B|----------------------------------|------------|
G|-----------------------b5_r42-----|-0/---------|
D|----42-2-2---------242-------42---|-/0-...2----|
A|------4---432020---------------420|--------432-|
E|2-2-------------2-2---------------|------------|

E|-------------------------------------------------------------|
B|-2-2-3p2--2---3p2--2---3p2-----------------------------------|
G|-2-2-2----2---2----2---2--------------------------b5_r42-----|
D|-2-2-4p2--2---4p2--2---4p2-----42-2-2---------242-------42---|
A|-0-0-0----0---0----0---0---------4---432020---------------432|
E|---------------------------222-------------222---------------|

E|--------------------|
B|--------------------|
G|-0/-----------------|
D|-/0------242-2--3-4-|
A|------------4-------|
E|---...222-----------|

A E A E A(sus4)
A E(VII) D B A
Riff A
A E(VII) D B A#
A E(VII) D   B   F#

E|---------------------------------|
B|---------------------------------|
G|---------------------------------|
D|---------------------------------|
A|-----------------02-22-220-------|
E|-02222-220222220----------2222222|

E|---------------------------------|
B|---------------------------------|
G|---------------------------------|
D|---------------------------------|
A|----------------02222-220--------|
E|02-2222202222222---------2-22-22-|

E|-----------------|-------------------------------|
B|-----------------|-------------------------------|
G|-----------------|-------------------------------|
D|-----------------|-------------------------------|
A|-----------------|-2222-22-2222222-222---2222-2--|
E|-0222222202222222|2-------2-------2---2-2------2-|

solo1
E|-45424242--------------------------------------------------|
B|---------5252525252423232----------------------------------|
G|-------------------------54242---2-----------2b--42--2-----|
D|------------------------------42---------2424--4---4---424-|
A|--------------------------------4-4303404------------------|
E|-----------------------------------------------------------|

E|--------------2-22-----------------4----|
B|-252-25252-252--2-34-47--4-47--47-7-747-|
G|----5-----5----------4--7-----7-4-------|
D|----------------------------------------|
A|----------------------------------------|
E|----------------------------------------|

solo2
E|-----------------|
B|-5252------------|
G|-----54242-------|
D|----------42-2-4-|
A|------------4----|
E|-----------------|

solo3
E|------------------------10-------------------11-----------|
B|-8b10----10b12----13b15----13p10------14b16-----14p11-----|
G|---------------------------------10-------------------11--|
D|----------------------------------------------------------|
A|----------------------------------------------------------|
E|----------------------------------------------------------|

E|---------12-------------------13------------------|
B|--15b17-----15p12------16b18-----16p13------17b19-|
G|------------------12-------------------13---------|
D|--------------------------------------------------|
A|--------------------------------------------------|
E|--------------------------------------------------|

Вверх


Dear Friends

E|---------10--9-7---5-----|-5---10---14---14-12---10----9-----|
B|-7--10---10----8---5---7-|-7---7----10------10---10-9-10-----|
G|-7--11---11----7---7-6-7-|-7---7----11-------9----9----9-----|
D|-7--12---12------------7-|--------7-12------11----9----7-----|
A|-5---9--------10-9-7---5-|-5-5-9---------------------------0-|
D|-------------------------|-----------------------------------|

E|-2---0---3---2-----------------0---0---2---2---0---2---3-|
B|-3---3---3---3---3---3---3-----3---3---3---3---3---3---2-|
G|-2---2---4---2---4---2---4-----2---2---2---2---2---2---2-|
D|-0---------------5---4---5---2---0---0---0---0-----------|
A|-----4---2---0-----------------------------------0---0-0-|
D|-----------------5---4---2-------------------------------|

E|----------10-9-------7---5---------|
B|-7---10---10---12-10-8---5---7-----|
G|-7----7---11---------7---7-6-7-----|
D|-7------7-12-----------------7-----|
A|---5--9-------------10-9-7---5-----|
D|-0-------------------------------0-|

E|-5---10---14---14-12---10----9-----|
B|-7---7----10------10---10-9-10-----|
G|-7---7----11-------9----9----9-----|
D|--------7-12------11----9----7-----|
A|-5-5-9---------------------------0-|
E|-----------------------------------|

E|-2---0---3---2-----------------------------------------------|
B|-3---3---3---3---3---3---3-----2---2---0---2---0---3---3-----|
G|-2---2---4---2---4---2---1-----2---2---2---2---0---4---2-----|
D|-0---------------5---4---2-----2---2---2---2---0---5---4-----|
A|-----4---2-----------------------0---0---0---0---------5-----|
D|-------------4---5---4---2---------------------5-4-2-------0-|

Вверх


Death On Two Legs

43" H H H                H  H  H  H  H
|--14-14-------|--14>>>|-14-14-14-14-14-------|
|-------14-----|-------|---------------(0)----|
|---------11---|-------|------------------11v-|
|--------------|-------|----------------------|
|--------------|-------|----------------------|
|--------------|-------|----------------------|

48"
|------------------------|----------------------------|
|------------------------|----------------------------|
|------------------------|----------------------------|
|-9v-------9-8v------7---|-6---(4)--0-4-5----0-4__/13-|
|--------9---------9-----|---------2------------------|
|------------------------|----------------------------|

F# G F#

55"
|----------------------14-15-17-15h17p15-14-15-14h15p14----14----15--------|
|-17b19-----14--15--17----------------------------------17----17----18b20v-|
|--------------------------------------------------------------------------|
|--------------------------------------------------------------------------|
|--------------------------------------------------------------------------|
|--------------------------------------------------------------------------|

|-17--------------------------------------------------------------|
|------15--14--15v------14--15--17--b19_rbrp1515-14-15-b17___r-14-|
|-----------------------------------------------------------------|
|-----------------------------------------------------------------|
|-----------------------------------------------------------------|
|-----------------------------------------------------------------|

|----------------------------------|
|-15-14h15p14---14-----------------|
|------------------16-15-----------|
|------------------------17-16vv---|
|----------------------------------|
|----------------------------------|

114"
|------------------------|----------------|----|
|------------------------|-10--10--10--10-|----|
|------------------------|-11--11--11--11-|-0/-|
|-5------4---..4-4-4-4-/-|-12--12--12--12-|-/0-|
|-5------4---..4-4-4-4-/-|-12--12--12--12-|----|
|-3------2---..2-2-2-2---|-10--10--10--10-| 2X |

G C

133"
|------------------------|--------------------------|
|------------------------|--------------------------|
|------------------------|--------------------------|
|-9v-------9-8v------7---|-6---(4)--0-4-5___7p5p0-4-|
|--------9---------9-----|---------2----------------|
|------------------------|--------------------------|

| H  H  H               H H
|-14-14-14-----|-------14-14v|
|--------------|-------------|
|----------11v-|-11-11-------|
|--------------|-------------|
|--------------|-------------|
|--------------|-------------|


|------------------------|
|------------------------|
|------------------------|
|-9v-------9-8v------7---|
|--------9---------9-----| A xxxx
|------------------------|

146"        xxx
|--------------------------------------------|
|--------------------------------------------|
|-2--------------3--------3---------------4--|
|-0--------------4--------4-----------0---4--|
|-------/5---30--4--------4------2--------2--|
|--------------4-2----00-02-------------0----|

156
|---------------------------2----------2----------------|
|--2--------2-2---2---------3----------3-----3----------|
|--2--------2-2---2---------2----------2-----4-----3----|
|--2--------2-2---2---------0----------0-----4-----4----|
|--0--------0-0---0-------0----------0-------2-----4----|
|0------2-3-----------2-3--------2-3---------------2----|

|-------------------------------------------------------|
|-------------------------2-------2----------3----------|
|-------------4-----4-----2-------2----------2----------|
|-4-----4-----4-----4-----2-------2----------0----------|
|-4-----4-----2-----2-----0-------0--------0----------0-|
|-2-----2----------2----------2-3------2-3--------2-3---|

223"                             trem.
|--------------------------------------|
|-trem---5-4-3-2-----------------------|
|-6rr2-----------5-4-2-----------------|
|----------------------4-2-------------|
|--------------------------4-3-2-0////-|
|--------------------------------------|

231"
|--------------------------------------------------------------------2---|
|----3-------------------------------------------------------------3---3-|
|----2-------2----------------------------2----------------------2-------|
|-9-0-----4-------0-2-----------0------4-------0-2------------0----------|
|--------------4-------2---0---4------------4-------2----0---4-----------|
|------------------------------------------------------------------------|

|-------------------------------------------------|
|-------------------------------------------------|
|---2---------------------------------------------|
|-4-------0-2-------------------------------------|
|-----4-------2---4-5-0---2-4-----0-2-------------|
|-----------------------------3-------0-2--220-2--|

231"
|-2------------------------------------------------------------|
|-3--------3-5/7------------------7----------------------------|
|-2----------------7-9-b11--9b11---9p7-7--2------7---7---9-b11-|
|-0----4h5----/7----------------------7---------7__-7----------|
|--------------------------------------------4/5---------------|
|--------------------------------------------------------------|
tr
|----------7--------------------------------------------------------|
|-----11----11----------------------------7v------------------------|
|----------------7---10r9p7-9p7-----7---9---------7-9b11-vr9-7-9v---|
|-2/7---------------------------9p7-------------7-------------------|
|-------------------------------------------------------------------|
|-------------------------------------------------------------------|

|-----------------|
|-----------------|
|-----------------|
|-7h9-9p7---------|
|---------9p7-9---|
|-----------------|

253"                   trem.
|--------------------------|-10--10--10--10-|----|
|--------------------------|-10--10--10--10-|----|
|--------------------------|-11--11--11--11-|-0/-|
|-5-->>>>--3---------------|-12--12--12--12-|-/0-|
|-5-->>>>----5-3-1-4--xx0--|-12--12--12--12-|----|
|-3----------------2-------|-10--10--10--10-| 2X |

G C
|------------------------|-------------------------------|
|------------------------|----------------------------6/7|
|------------------------|----------------------------6/7|
|-9v-------9-8v------7---|-6---(4)--0-4-5----0-4---------|
|--------9---------9-----|---------2---------------------|
|------------------------|-------------------------------|
H          H  H  H  H  H  H  H
|-------19b21r19-|-14-14-14-14-14-14-14----|
|----15----------|-------------------------|
|-16-------------|----------------------11-|
|----------------|-------------------------|
|----------------|-------------------------|
|----------------|-------------------------|

|------------------------|
|------------------------|
|------------------------|
|-9v-------9-8v------7---|
|--------9---------9-----| A D xxxx F# Bm A D
|------------------------|

Вверх


Doing All Right

piano (right) arr for guitar
E|-----0--------0--------0--------12---|----|
B|-9-------10-------12-------10--------|----|
G|-------------------------------------|-0/-|
D|-9-------11-------13-------11--------|-/0-|
A|-------------------------------------|----|
E|---0---0----0---0----0---0----0----0-|-3X-|

E|-----0--------0-------0-------0------------------------------|
B|-9-------10-------9-------9--------9---9--9--7--7---7---5----|
G|------------------7-------6--------9---9--9--8--8---8---6----|
D|-9-------11-------9-------8--------9---9-----9--9---9---7----|
A|-------------------------------------------------------------|
E|---0---0----0---0---0---0---0---0------7----------7--------5-|

clean eletric guitar (left)
E|------------|--------------|-------------------------------*-|
B|-12b14__r12-|--------------|-------------------------------*-|
G|------------|-12-11-9----9-|--------9-13r11p9----11b13-b13-*-|
D|------------|---------11---|------9-----------11-----------*-|
A|------------|--------------|-9/11--------------------------*-|
E|------------|--------------|-------------------------------*-|

*----------------------|---------------------------------------|
*-12-------------------|-12b14-12------------------------------|
*----13r11-11p9------9-|----------11b13---13r11-9---8h9p8------|
*---------------11p9---|----------------------------------9/11-|
*----------------------|---------------------------------------|
*----------------------|---------------------------------------|

E|-------------------------------------------------------------|
B|-------------------------------------------------------------|
G|----------13r11---------13r11b13r11-b13---13r11p9------------|
D|-(9b11r9)-----------------------------------------11---9-7-6-|
A|-------------------------------------------------------------|
E|-------------------------------------------------------------|

E|---------------------------------------------|
B|-------------------12----10--9-10-8h9p8------|
G|-/9--------13r11p9----------------------11-9-|
D|-------11------------------------------------|
A|---------------------------------------------|
E|---------------------------------------------|

acoustic guitar
E|-----------------------------------|
B|---3--3-3-3--------33-3-3-3-----3--|
G|--2-2-2-0-0-2--2--2-2-2-0-0----2---|
D|-0------------2--0------------2----|
A|----4-4-2-2--0------4-4-2-2-20-----|
E|-----------------------------------|

E|---------0-0-0-------22-------5----|
B|---3------------2-------3-3-3----2-|
G|--2--2-2-0-0--2-----2-2-2-0-0---2--|
D|-0-------------2---0-----------2---|
A|-----4-4-2-2-0--------4-4-2-2-0----|
E|-----------------------------------|

E|------------------------------------|
B|---33-3-3-3-3--3------3-----2-------|
G|--2-2-2-0-0-----------2-0-0----2----|
D|-0------------2--0----------------2-|
A|----4-4-2-2-0-------4-4-2-2--0---2--|
E|---------------------------------0--|

E|-4-4------0------4-4--------0----|
B|-4-4-2-----0-----4-4-2-2--0------|
G|-4-4-2------2----4-4-2-2------01-|
D|--------2----2-2-----------2-2---|
A|-----0---------2-----0-0---------|
E|---------------0-----------------|

E|---4-4--------0------------0--0-------------------|
B|---4-4-----0-------3------2----3---3---2--2-------|
G|-------2-2--2--------0-0----0--------0-----2------|
D|-----2-------2--------0------2--------0--2--2---2-|
A|-2-----0-0------101-----0-------101-----0---------|
E|-0------------------------------------------------|

E|-------------------------------------|
B|---------------------3-3-3-3---------|
G|----2-2-0-0-2--2-----2-2-0-0----2----|
D|-0--0---------2---0--0-0-0-0-0-2--0--|
A|----4-4-2-2--0-------4-4-2-2--0------|
E|-------------------------------------|

E|---------5---------------0----|
B|-3-3---------------3-3-3----3-|
G|-2-2-0-0----2----2-2-0-0------|
D|-0-0-0-0---2--0--0-0-0-0---2--|
A|-4-4-2-2--0------4-4-2-2-0----|
E|------------------------------|

E|--------------------|
B|------------3--3-..-|
G|----2-2-0-0-2----..-|
D|-0--0-0-0-0---2--..-|
A|----4-4-2-2-0----..-|
E|-----------------..-|

right and left guitar
E(VII) B(VII) D(V) A(V)
E(VII) B(VII) D(V) A(V)
E(VII) B(VII) D(V) A(V)
E(VII) B(VII) D(V) A(V) E(VII)

E(VII) A(V) E(VII) B(VII) E(VII) A(V) E(VII) B(VII) E(VII)
E(VII) A(V) E(VII) B(VII) E(VII) A(V) E(VII) B(VII) E(VII)
E

midle guitar
E|-------------------------------------------|
B|-------------------------------------------|
G|-------------------------------------------|
D|--------------------------5----------------|
A|-7--------5-6-7------------7-------5-6-7---|
E|-----7----------5----3p0-------7---------5-|

E|-------------------------------------|
B|-------------------------------------|
G|-------------------------------12b---|
D|-h14-12----12---14p12-14p12----------|
A|--------14------------------14-------|
E|-------------------------------------|

E|------------------------------------|
B|------------------------------------|
G|----1414-12-----14b16-b16-b16---b16-|
D|-14---------14----------------------|
A|------------------------------------|
E|------------------------------------|

E|-------------------------------------|
B|----------------------15b17---15b17--|
G|-b16-b16-b16-b16-r14-----------------|
D|-------------------------------------|
A|-------------------------------------|
E|-------------------------------------|

E|----------------------------------------|
B|------------b17---b17---b17---b17---b17-|
G|------------------------b16---b16---b16-|
D|-2p0h2..2p0-----------------------------|
A|----------------------------------------|
E|----------------------------------------|

E|----------12-12----------12----------|
B|-------12-------------12---1512------|
G|-14b16----------14b16----------14b16-|
D|-------------------------------------|
A|-------------------------------------|
E|-------------------------------------|

E|----12-------------12------|
B|-12---1512------12----1512-|
G|----------14b16------------|
D|---------------------------|
A|---------------------------|
E|---------------------------|

E|----------12----12----------------|
B|-------12----12----12-12-12-15b17-|
G|-14b16----------------------------|
D|----------------------------------|
A|----------------------------------|
E|----------------------------------|

clean eletric guitar (left)
E|----------------------------12---16r14b16r14-12--|
B|-9h10p9..10p9---10--10/12------------------------|
G|-------------------------------------------------|
D|-------------------------------------------------|
A|-------------------------------------------------|
E|-------------------------------------------------|

E|-19_____--------------|
B|---21r19-17------17vv-|
G|-------------18-------|
D|----------------------|
A|----------------------|
E|----------------------|

E|-----------------------------------------------------------|
B|-----------------------------------------------------------|
G|-18-18p16---16-18p16-18p16-18---16----13h16p13h16p13h16p13-|
D|-----------------------------------------------------------|
A|-----------------------------------------------------------|
E|-----------------------------------------------------------|

E|---------------------------------|----------------------|
B|---------------------------------|----------------------|
G|---------------------------------|----------------------|
D|-18r16--14--18r16--(14)--16b18v--|-/14--/14--/14-----14-|
A|---------------------------------|----------------16----|
E|---------------------------------|----------------------|

right and left guitar
E(VII) B(VII) D(V) A(V)
E(VII) B(VII) D(V) A(V)

E(VII) B(VII) D(V) A(V)
E(VII) B(VII) D(V) A(V)
E(VII) B(VII) D(V) A(V)
E(VII) B(VII) D(V) A(V) E(VII) (D(V))

E(VII) A(V) E(VII) B(VII) E(VII) A(V) E(VII) B(VII) E(VII)
E(VII) A(V) E(VII) B(VII) E(VII) A(V) E(VII) B(VII) E(VII)
E

midle guitar
E|------------------------------------------|
B|------------------------------------------|
G|------------------------------------------|
D|-------------------14p12----12---12-14p12-|
A|-7-------5-6-7-7---------14---------------|
E|-----7------------------------------------|

E|-----------------------------------|
B|-----------------------------------|
G|---------16r14-12------------------|
D|----14-----------------12-13-14----|
A|-14---------------14------------12-|
E|-----------------------------------|

E|-----------------------------------------|
B|-----------------------------------------|
G|-----------------------------------------|
D|-----------------------------------------|
A|-10--------------------------------------|
E|----12-12-12---12-12-12-12-12-12-12-12---|

E|----------------------------12-------|
B|-------------------------12----15b17-|
G|-----------9-11b13v_/13--------------|
D|------9-11---------------------------|
A|-5/10--------------------------------|
E|-------------------------------------|

E|-------12-12-12-12-12-12----15b17-b17---b17---b17---17r15p13-|
B|-------------------------------------------------------------|
G|-14b16------------------(0)----------------------------------|
D|-------------------------------------------------------------|
A|-------------------------------------------------------------|
E|-------------------------------------------------------------|

E|-b21---19v--17-16-16---------------21r19---------------------|
B|--------------------19-17-21r19p17------(17)-17---17---17-17-|
G|-------------------------------------------------------------|
D|-------------------------------------------------------------|
A|-------------------------------------------------------------|
E|-------------------------------------------------------------|

E|-----------------------------------------------------------|
B|-21r19p17-17------17---------------------------------------|
G|---------------18----------14b16---14--13--11--------------|
D|-------------------------------------------------13--13p11-|
A|-----------------------------------------------------------|
E|-----------------------------------------------------------|

the vocal
E|-------------------------------|
B|-12-10-9--9--9--9--10-12-12-12-|
G|-13-11-9--9--9--11-11-11-11-13-|
D|-14-11-9--9--11-11-11-13-14-14-|
A|-------------------------------|
E|-------------------------------|

Вверх


Dont Stop Me
Now

F                      Am7           Dm7
Tonight, Im gonna have myself a real good time
Gm7 C7         F              F7    Bb
I feel alive, and the world, turning inside out, yeah
Gm7               D7           Gm    Dm  Gm Gm7
and floating around in ecstasy, so dont stop me now
Gm    Dm  Gm                                C7
Dont stop me cause Im having a good time, having a good time.
F                                Am7           Dm7
Im a shooting star leaping through the sky, like a tiger
Gm7         C7
defying the laws of grafity
F                  Am                Dm
Im a racing car, passing by, like lady Godiva
Gm         C7                   F
Im gonna go, go, go,theres no stopping me
F7                  Bb         Gm7
Im burning through the sky, yeah, 200 degrees,
D7                   Gm
thats why they call me Mister Fahrenheit
D7                         Gm7
Im travelling at the speed of light.
Bb                       C
I wanna make a supersonic man out of you

F     Gm  F  Dm
Dont stop me now,
Gm7           C7
Im having such a good time, Im having a ball
F     Gm  F  Dm
Dont stop me now,
Gm7             D7
if you wanna have a good time, just give me a call
Gm    Dm   Gm7
Dont stop me cause Im having a good time
Gm    Dm   Gm7
Dont stop me, yes Im having a good time,
C7                    Eb
I dont want to stop at all

Im a rocket ship, on my way to mars, on a collision course
I am a satellite, Im out of control
Im a sexmachine, ready to reload, like an atombomb
about to oh, oh, oh, oh, to explode
Im burning through ....

N.C
Dont stop me, dont stop me, dont stop me, hey hey hey
Dont stop me, dont stop me, oh oh oh
Dont stop me, dont stop me, have a good time, good time
Dont stop me, dont stop me, Ahhhhh

(Guitar)  =  verse

Im burning through ...
Dont stop me now ...

Вверх


Dont Stop Me
Now (2 вариант)

guitar solo
E|------------------------------------------------------------|
B|----------------------------------------------b12~-10-------|
G|-12b14-b14-r12p10-b14-b14-14r12p10-12-10-9-10---------12-10-|
D|------------------------------------------------------------|
A|------------------------------------------------------------|
E|------------------------------------------------------------|

E|---------------------------|
B|-------10------------------|
G|-12b14----b14-b13-14r12----|
D|------------------------10-|
A|---------------------------|
E|---------------------------|

E|-----------------------------------------------|
B|-11b13---11p10-11b13-b13--13r11p10-11-10----10-|
G|-----------------------------------------12----|
D|-----------------------------------------------|
A|-----------------------------------------------|
E|-----------------------------------------------|
*
E|-------------|-------------------------------|
B|-11-10-------|-------------------------------|
G|-------12-10-|-12b14-12-14-12-14-12-14p12-10-|
D|-------------|-------------------------------|
A|-------------|-------------------------------|
E|-------------|-------------------------------|

E|----------------------------------|
B|----------------------------------|
G|----------------------------------|
D|----------------------------------|
A|-10-12p10-8---10/12-10h12p10h12---|
E|-------------------------------10-|

E|----------------------------------------|
B|----------------------------------------|
G|--10h12p10-10-10h12p10-10-10h12p10-10~~-|
D|----------------------------------------|
A|----------------------------------------|
E|----------------------------------------|

E|------------------------|-20-20-20-20-20-20-20-20-|
B|-b15-b15-b15-b15-b15~~~-|-22-22-22-22-22-22-22-22-|
G|------------------------|-------------------------|
D|------------------------|-------------------------|
A|------------------------|-------------------------|
E|------------------------|-------------------------|

Вверх


Dont Stop Me
Now (3 вариант)

guitar solo
E|--------------------------------------|
B|------10v-----------10v-10v-----------|
G|12b14-----14r_12p10---------14r12_p10-|
D|--------------------------------------|
A|--------------------------------------|
E|--------------------------------------|

E|---------------------------|
B|-------------b11~-10-------|
G|-12-10-9-10v---------12-10-|
D|---------------------------|
A|---------------------------|
E|---------------------------|

E|---------------------------------|
B|---------------------------------|
G|-12b14---b13--b14--b13--14r12----|
D|------------------------------10-|
A|---------------------------------|
E|---------------------------------|

E|----------------------------------------------------|
B|-11b13v---13r11p10-b13---b13---13r11p10-11-10----10-|
G|----------------------------------------------12----|
D|----------------------------------------------------|
A|----------------------------------------------------|
E|----------------------------------------------------|
*
E|-----------------------------------------------------------|
B|-11--10----------------------------------------------------|
G|----------12---10---12b14--12--b14--12--b14--12--14r12p10v-|
D|-----------------------------------------------------------|
A|-----------------------------------------------------------|
E|-----------------------------------------------------------|

E|---------------------------------------|
B|---------------------------------------|
G|---------------------------------------|
D|---------------------------------------|
A|-10--12r10-8---8---10/12--10--10--8----|
E|------------------------------------10-|

E|-----------------------------------------------------|
B|-----------------------------------------------------|
G|-10h12p10----10---10h12p10----10---10h12p10----10v~~-|
D|----------12---------------12---------------12-------|
A|-----------------------------------------------------|
E|-----------------------------------------------------|

E|------------------------|-20-20-20-20-20-20-20-20-|
B|-b15-b15-b15-b15-b15v~~-|-22-22-22-22-22-22-22-22-|
G|------------------------|-------------------------|
D|------------------------|-------------------------|
A|------------------------|-------------------------|
E|------------------------|-------------------------|

* on the Live Killers version:
E|-----------------------------------------------|
B|-13p10h13p10-----------------------------------|
G|-------------12p10h12p10-12p10-----------12-10-|
D|-------------------------------12---10---------|
A|-----------------------------------------------|
E|-----------------------------------------------|
Transcribed by Pinter Denes

Lyrics and chords:

F                      Am            Dm
Tonight, I?m gonna have myself a real good time
Gm  C           F        F7            Bb
I feel alive, and the world, turning inside out, yeah
Gm7                D7          Gm    F   C  Gm
and floating around in ecstasy, so don?t stop me now
Gm    F  C              Gm7                 C
Don?t stop me ?cause I?m having a good time, having a good time.
F                               Am           Dm
I?m a shooting star leaping through the sky, like a tiger
Gm        C
defying the laws of grafity
F                  Am                Dm
I?m a racing car, passing by, like lady Godiva
Gm             C                 F
I?m gonna go, go, go,there?s no stopping me
F7                  Bb         Gm7
I?m burning through the sky, yeah, 200 degrees,
D7                  Gm
that?s why they call me Mister Fahrenheit
D7                         Gm
I?m travelling at the speed of light.
Bb   F    Bb      G7   C
I wanna make a supersonic man out of you
F     Gm  Am  Dm
Don?t stop me now, I?m having such a
Gm7           C
good time, I?m having a ball
F    Gm  Am  Dm
Don?t stop me now, if you wanna have a
Gm7             D7
good time, just give me a call
Gm    F    C           Gm7
Don?t stop me cause I?m having a good time
Gm     F   C           Gm
Don?t stop me, yes I?m having a good time,
(x13141)
C                    Bbm7sus4
I don?t want to stop at all


I?m a rocket ship, on my way to mars, on a collision course
I am a satellite, I?m out of control
I?m a sexmachine, ready to reload, like an atombomb
about to oh, oh, oh, oh, to explode
I?m burning through ...N.C.

Don?t stop me, don?t stop me, don?t stop me, hey hey hey
Don?t stop me, don?t stop me, oh oh oh
Don?t stop me, don?t stop me, have a good time, good time
Don?t stop me, don?t stop me, Ahhhhh

Вверх


Dont Try Suicide

solo:     -3-                                -3-
E|-------------------------------------------------------|
B|-----------8-10b11--b11-------10b11--b11_r----8-10b11--|
G|----------8----------------8-----------------8---------|
D|--------10----------------x----------------10----------|
A|->>>10-------------------------------------------------|
E|->>>8--------------------------------------------------|

E|-----------|
B|-b11_r10p8-|
G|-----------|
D|-----------|
A|-----------|
E|-----------|

E|---------------------------------------------------------|
B|-10b12--b12-8----8---------------------------------------|
G|--------------10---10b12--b12vvv----10---10--------------|
D|--------------------------------------------12-10-12-10--|
A|---------------------------------------------------------|
E|---------------------------------------------------------|

E|---------------|
B|---------------|
G|---------------|
D|--10-8----10-8-|
A|-------10------|
E|---------------|

E|----------------------------------10b12...-|
B|----10b11-b11-----8-11b12-11v----8---------|
G|--8--------------8--------------8----------|
D|---------------10-------------10-----------|
A|-------------------------------------------|
E|-------------------------------------------|

Вверх


Dragon Attack

two gtrs
E|-----------------------------------------------|
B|-----------------------------------------------|
G|-----------------------------------------------|
D|-------3-3-------------3-3-----------353-------|
A|-353-35---53-35-x353-35---53-35...-..---535...-|
E|----5-------5-------5-------5------------------|

E|----------------------------------------------------------|
B|---1------------1---------------1-----------1-------------|
G|---2---4--------2---4-----------2---4-------2---4---------|
D|---3---5--------3---5---53------3---5-------3---5---53----|
A|---3---5-------33---5-----535---3---5-------3---5-----535-|
E|-31---3---xxxx11---3---------xx1---3---x-xx1---3----------|

two gtrs 1:00
E|---------------8--------|
B|-----------8------------|
G|-12b14rv---------10b12--|
D|------------------------|
A|------------------------|
E|------------------------|
one guitar
E|--------------------------------------------------------|
B|-x13b15v-------------10-13-10---------------------------|
G|-x---------------b14----------13-12-10----12-10v--------|
D|-----------x--x------------------------12----------x--x-|
A|-----------x--x------------------------------------x--x-|
E|--------------------------------------------------------|

E|-------------|----|
B|-------10-13-|----|
G|-12b14-------|-0/-|
D|-------------|-/0-|
A|-------------|----|
E|-------------| 5X |

E|-------------------------------------------------|
B|-------------__________--------------------------|
G|-13-12-10----10h12p10----10----___________-10----|
D|----------12----------12----12-10h12p10----10----|
A|----------------------------------------12----12-|
E|-------------------------------------------------|

E|-----------------------|
B|-----------------------|
G|---10----10----12---10-|
D|---10---x10----12---10-|
A|-x------------x--------|
E|-----------------------|

E|-------------------------------------------------------|-----|
B|-------------------------------------------------------|-----|
G|-------------------------------------------------------|-0/--|
D|---12----12---------10---12----12---12---10----10------|-/0--|
A|---12---x12-x-10-12------12----12---12------12-10---12-|-----|
E|xxx---------------------------x------------------------|4.5X-|

E|---------------------------------------------------|
B|-13b15v---10-10-13-10------------------------------|
G|----------------------13-12-11-10b----10b----------|
D|-----------------------------------12-----12-------|
A|---------------------------------------------10h12-|
E|---------------------------------------------------|

E|----------------------------------------------|
B|-------10-13-10-------_______-----------------|
G|-12b14----------13-12-10h12p10----10----------|
D|-------------------------------12----12-------|
A|----------------------------------------10h12-|
E|----------------------------------------------|

E|-------------------------------------------------------------|
B|------------------------------------------13-----------------|
G|---------------------------------------------10h13p12p10v----|
D|-10----10-------------------------------------------------12-|
A|----12----12-11-10-8b---------xxx8b--------------------------|
E|------------------------10-8---------h10---------------------|

E|------------------------------------------------------|
B|-----------------------13-10--------------------------|
G|-----------------------------13-12-11b----------------|
D|---------------------------------------12-10----------|
A|------8----8---10b12-------------------------12-------|
E|-x-10---10--------------------------------------8-10--|

E|-------------------------------|
B|--------13-10------------------|
G|--------------13-12-10---------|
D|-----------------------12-10---|
A|-----8---10------------------x-|
E|--10---------------------------|

3:03 rythm gtr1
E|---------------------------------------------|
B|---------------------------------------------|
G|-5b-------------------------5b---------------|
D|------7-6-5-3---3----------------7-6-5-3---3-|
A|--------------5-----5---3----------------5---|
E|---------------------------------------------|
|rythm gtr2: E5 D5 A5 G5

E|-----------------------------------------------------------|
B|-----------------------------------------------------------|
G|-xxx5b-----------------------------5-----------------------|
D|---------7-6-5-3---5-3-----------------7-6-5-3---5----7----|
A|-----------------5-------5-3---5-----------------3----5...-|
E|-----------------------------------------------------------|
| E5 D5 A5 G5
...

3:36
E|--------------------------------------------------------|
B|-13b15v---15r13p10-13-----------------------------------|
G|----------------------10v-------------------------------|
D|--------------------------------------10----10-12-10-12-|
A|----------------------------10---12------12-------------|
E|--------------------------------------------------------|

E|-------------------------------------|
B|-----------------13-b15_r_b-r14-b15v-|
G|-10----10-12/14----------------------|
D|----12-------------------------------|
A|-------------------------------------|
E|-------------------------------------|

E|---------------------------------------|
B|-15r13-10-13p10-12p10-11p10------------|
G|----------------------------12-12b14vr-|
D|---------------------------------------|
A|---------------------------------------|
E|---------------------------------------|

E|-------------------------|-------------|----|
B|----13-15-b18v------18r15p13-14-b15v---|----|
G|-14----------------------|-------------|-0/-|
D|-------------------------|-------------|-/0-|
A|-------------------------|-------------|----|
E|-------------------------|-------------| 5X |

E|--------------------------0-r/----20-----20-----|
B|-13-14-15-b17--b18vvr---x-0--/--xb22----b22___r-|
G|------------------------x-0--/--x---------------|
D|------------------------------------------------|
A|------------------------------------------------|
E|------------------------------------------------|

E|--20---20---|----|--20-r-|
B|-b22--b22---|----|-b22---|
G|------------|-0/-|-------|
D|------------|-/0-|-------|
A|------------|----|-------|
E|------------| 7X |-------|

Вверх


Dreamers Ball

two gtrs
E|-----------------------------------------------|
B|-----------------------------------------------|
G|-----------------------------------------------|
D|-------3-3-------------3-3-----------353-------|
A|-353-35---53-35-x353-35---53-35...-..---535...-|
E|----5-------5-------5-------5------------------|

E|----------------------------------------------------------|
B|---1------------1---------------1-----------1-------------|
G|---2---4--------2---4-----------2---4-------2---4---------|
D|---3---5--------3---5---53------3---5-------3---5---53----|
A|---3---5-------33---5-----535---3---5-------3---5-----535-|
E|-31---3---xxxx11---3---------xx1---3---x-xx1---3----------|

two gtrs 1:00
E|---------------8--------|
B|-----------8------------|
G|-12b14rv---------10b12--|
D|------------------------|
A|------------------------|
E|------------------------|

one guitar
E|--------------------------------------------------------|
B|-x13b15v-------------10-13-10---------------------------|
G|-x---------------b14----------13-12-10----12-10v--------|
D|-----------x--x------------------------12----------x--x-|
A|-----------x--x------------------------------------x--x-|
E|--------------------------------------------------------|

E|-------------|----|
B|-------10-13-|----|
G|-12b14-------|-0/-|
D|-------------|-/0-|
A|-------------|----|
E|-------------| 5X |

E|-------------------------------------------------|
B|-------------__________--------------------------|
G|-13-12-10----10h12p10----10----___________-10----|
D|----------12----------12----12-10h12p10----10----|
A|----------------------------------------12----12-|
E|-------------------------------------------------|

E|-----------------------|
B|-----------------------|
G|---10----10----12---10-|
D|---10---x10----12---10-|
A|-x------------x--------|
E|-----------------------|

E|-------------------------------------------------------|-----|
B|-------------------------------------------------------|-----|
G|-------------------------------------------------------|-0/--|
D|---12----12---------10---12----12---12---10----10------|-/0--|
A|---12---x12-x-10-12------12----12---12------12-10---12-|-----|
E|xxx---------------------------x------------------------|4.5X-|

E|---------------------------------------------------|
B|-13b15v---10-10-13-10------------------------------|
G|----------------------13-12-11-10b----10b----------|
D|-----------------------------------12-----12-------|
A|---------------------------------------------10h12-|
E|---------------------------------------------------|

E|----------------------------------------------|
B|-------10-13-10-------_______-----------------|
G|-12b14----------13-12-10h12p10----10----------|
D|-------------------------------12----12-------|
A|----------------------------------------10h12-|
E|----------------------------------------------|

E|-------------------------------------------------------------|
B|------------------------------------------13-----------------|
G|---------------------------------------------10h13p12p10v----|
D|-10----10-------------------------------------------------12-|
A|----12----12-11-10-8b----------xxx8b-------------------------|
E|------------------------10-8----------h10--------------------|

E|------------------------------------------------------|
B|-----------------------13-10--------------------------|
G|-----------------------------13-12-11b----------------|
D|---------------------------------------12-10----------|
A|------8----8---10b12-------------------------12-------|
E|-x-10---10--------------------------------------8-10--|

E|-------------------------------|
B|--------13-10------------------|
G|--------------13-12-10---------|
D|-----------------------12-10---|
A|-----8---10------------------x-|
E|--10---------------------------|

3:03 rythm gtr1
E|---------------------------------------------|
B|---------------------------------------------|
G|-5b-------------------------5b---------------|
D|------7-6-5-3---3----------------7-6-5-3---3-|
A|--------------5-----5---3----------------5---|
E|---------------------------------------------|
|rythm gtr2: E5 D5 A5 G5

E|-----------------------------------------------------------|
B|-----------------------------------------------------------|
G|-xxx5b-----------------------------5-----------------------|
D|---------7-6-5-3---5-3-----------------7-6-5-3---5----7----|
A|-----------------5-------5-3---5-----------------3----5...-|
E|-----------------------------------------------------------|
| E5 D5 A5 G5
...

3:36
E|-------------------------------------|
B|-13b15v---15r13p10-13----------------|
G|----------------------10v------------|
D|-------------------------------------|
A|----------------------------10---12--|
E|-------------------------------------|

E|--------------------------------------------------------|
B|------------------------------------13-b15_r_b-r14-b15v-|
G|--------------------10----10-12/14----------------------|
D|--10----10-12-10-12----12-------------------------------|
A|-----12-------------------------------------------------|
E|--------------------------------------------------------|

E|---------------------------------------|
B|-15r13-10-13p10-12p10-11p10------------|
G|----------------------------12-12b14vr-|
D|---------------------------------------|
A|---------------------------------------|
E|---------------------------------------|

E|-------------------------|-------------|----|
B|----13-15-b18v------18r15p13-14-b15v---|----|
G|-14----------------------|-------------|-0/-|
D|-------------------------|-------------|-/0-|
A|-------------------------|-------------|----|
E|-------------------------|-------------| 5X |

E|--------------------------0r/----20-----20------|
B|-13-14-15-b17--b18vvr---x-0--/--xb22----b22___r-|
G|------------------------x-0--/--x---------------|
D|------------------------------------------------|
A|------------------------------------------------|
E|------------------------------------------------|

E|--20---20---|----|--20r-|
B|-b22--b22---|----|-b22-|
G|------------|-0/-|------|
D|------------|-/0-|------|
A|------------|----|------|
E|------------| 7X |------|

Вверх


Driven By You

B7                         C
E|---------------------------------------------------------|
B|---------------------------------------------------------|
G|-4------3-4-5--4h5p4-2h4p2-4p2--2------------------------|
D|-----------------------------------------------5-5---4h5-|
A|---------------------------------------------------------|
E|---------------------------------------------------------|

A7/C#          G/D                     D7sus4
E|---------------------------------------------------3---------|
B|-------------------------------------3-3----5------5p3h5-5-3-|
G|-2---------------------------4-4---------4-------------------|
D|---5-5-5---4p2----5-5----------------------------------------|
A|-------------------5-----------------------------------------|
E|-------------------------------------------------------------|

D                          A
E|-----------------3h5/7h8h10-|
B|-3-------3h5/7--------------|
G|-----4h5--------------------|

Guitar 2 plays the second part: (much lower, slight distortion)
[A]                     [D] [A]        [D]                [A]
G|-----------------------------------------------2---------2-6-|
D|--------------------------2-2-2-2-2-2-4-4-4/3/4h5-4/3/4-4----|
A|-4-4-4-4-4-4h5-5-5-5-5-5h7-----------------------------------|

Higher once again, back to clean guitar one:
D                                            A
E|-2--2-2---2p0-----------------------------------------------|
B|---------------3p2h3p2h3p2-----------3p2-----2--------------|
G|----------------------------------4p2h4p2----4p2------------|
D|----------------------------------------------------------2-|

D   E F  Bb/FC/FF   Bb/F C/F F         Bb/F
E|-5-5-7-h8----------------------------------------------------|
B|--------------------------------3-3-5h6/10-10-10-10-10--15---|
G|-----------------------2-2-5-5-------------------------12p11-|
D|-------------3-3-3-5-5---------------------------------------|
^overdrive guitar 2 plays this part
C          Db/F		Eb/F   Db/F
E|-----------------------------------------------------|
B|-13p11/10/11h13--------------------------------------|
G|-----------------------10h12h13-------13p12p10h12h13-|
D|-----------------------------------------------------|

E|-------------------------------------------------------------|
B|-11--14--13p11/9/11-11p9-------------------------------------|
G|---13---------------------------12-13p12p10--12p10--10-------|
D|-------------------------------------------------------13p11-|
A|-------------------------------------------------------------|
E|-------------------------------------------------------------|

E|-------------------------------------------------------------|
B|-------------------------------------------------------------|
G|-------------------------------------------------------------|
D|-13p11p10-11p10h11p10----------------------------------------|
A|-----------------------13p11h13p11-10--15-----15--15---------|
E|--------------------------------------------13-13-----13--13-|

F5, F5, F5, F5, F5, E5 (back into song with D chord and lyric,
"No were never gonna)

Вверх


Fat Bottomed Girls

Tune the guitar to a dropped D (lower the low E to a low D)

Most of the song is played on the D chord -

E|----------|-2--2-|
B|----------|-3--3-|
G|----------|-2--2-|  ETC...
D|----------|-0--0-|
A|----------|-0--0-|
E|-5--3^--0-|-0--0-|

If you play often with Dropped D, you know how to play the
funky notes after they sing the chorus. Here are some ways
to play them -

E|-2--..-----0-----0--|--2--..------------------------2-|
B|-3--..-----3-----3--|--3--..------------------------3-|
G|-2--..-----0-----0--|--2--..------------------------2-|
D|-0--..-----0-----0--|--0--..------------------------0-|
A|-0--..--3-----2-----|--0--..------------------------0-|
E|-0--..--------------|--0--..--5--3--3--3--5--3^--0--0-|

The D chord with the ".."s after it means to strum that
chord as you want. This isnt a note-for-note transcription,
its just to give you some ideas.

Here is the rest of the song- (chords are tabbed at the end)

D
I was just a skinny lad...(etc)
A
But I knew life before I left my luxury...
D
Left alone with big fat fatty,
G                             D
she was such a naughty nanny, you big woman,
A              D
You made a fat boy out of me...

Chorus -

D             C            G
Oh, wont you take me home tonite,
D          C                  A
Oh, Down beside your red fire light,
D             G
Oh, you gonna give it all you got,
D                  A            D
fat bottomed girls you make the rocket world round...

Вверх


Fight From The
Inside

E|---------|--2--2-|
B|---------|--3--3-|
G|---------|--2--2-| ETC...
D|---------|--0--0-|
A|---------|--0--0-|
E|5--3^--0-|--0--0-|

If you play often with Dropped D, you know how to play the funky
notes after they sing the chorus. Here are some ways to play
them -

E|-2--..-----0-----0--|--2--..------------------------2-|
B|-3--..-----3-----3--|--3--..------------------------3-|
G|-2--..-----0-----0--|--2--..------------------------2-|
D|-0--..-----0-----0--|--0--..------------------------0-|
A|-0--..--3-----2-----|--0--..------------------------0-|
E|-0--..--------------|--0--..--5--3--3--3--5--3^--0--0-|

The D chord with the ".."s after it means to strum that chord
as you want. This isnt a note-for-note transcription, it's
just to give you some ideas.

Here is the rest of the song- (chords are tabbed at the end)

D
I was just a skinny lad...(etc)
A
But I knew life before I left my luxury...
D
Left alone with big fat fatty,
G                             D
she was such a naughty nanny, you big woman,
A              D
You made a fat boy out of me...

Chorus -

D             C            G
Oh, wont you take me home tonite,
D          C                  A
Oh, Down beside your red fire light,
D             G
Oh, you gonna give it all you got,
D                  A            D
fat bottomed girls you make the rocket world round...

Here are the chords -

Вверх


Flash To The Resque

Intro: Muted Am chord

Verse 1:
Am   G F              D         A D G Am
Flash. Ah,  Saviour of the universe.
Am   G F                D         A D G Am
Flash. Ah,  Hell save every one of us.
Am   G F      D        A D G Am
Flash. Ah,  Hes a miracle.
Am   G F      D                A D A D G
Flash. Ah,  King of the impossiable.
C              G          Dm              A
Hes for every one of us. Stand for every one of us.
F                 C
Hell save with a mighty hand every
F         D           G            E      Am
man every woman every child with a mighty flash!
Am   G F   D A D G Am
Flash. Ah.   (Insert Brian May Fill Here)
G F                 D           A  D  A  D  G
Flash. Ah,   Hell save every one of us.

Verse 2: (Sort Of)
C        G         C            G
Just a man, with a mans courage.
Dm            A               Dm       A
He knows nothing but a man, but he can never fail.
F              C                    F
No one but the pure of heart may find
D      G     E   Am   Em  F       Am
the golden grail oh  oh   oh  oh.
Am
Flash!
(Fade Out)

Вверх


Friends Will Be
Friends

G        B7         E-    G7        C
E|-----------------------------------------------|
B|-12-11-12----10-9-10---------------------------|
G|----------12---------11-12-11-9-10-9-----------|
D|-------------------------------------11slide14-|
A|-----------------------------------------------|
E|-----------------------------------------------|

F       C
E|-----12-13-12----------|
B|---13---------13bend15-|
G|-12--------------------|
D|-----------------------|
A|-----------------------|
E|-----------------------|

G                  D/F#
Another red letter day,
E-                       B-               G
So the pound has dropped and the children are creating,
C                  A-7
The other half ran away,
D          C/D           G/D          D
Taking all the cash and leaving you with the lumber,
G                 B
Got a pain in the chest,
E-                        G7
Doctors on strike what you need is a rest.
A-   A-7                  D
It?s not easy love, but you?ve got friends you can trust,

C               A/C#
Friends will be friends,
G/D                      E-7
When you?re in need of love they give you care and attention,
D               B/D#
Friends will be friends,
E-                        Eb+5
When you?re through with life and all hope is lost,
G/D               A/C#    C
Hold out your hand cos friends will be friends
D     G        B7
Right till the end.

G                    D/F#
Now it?s a beautiful day,
E-                  B-               G
The postman delivered a letter from your lover,
C                 A-7
Only a phone call away,
D         C/D          G/D            D
You tried to track him down but somebody stole his number,
G              B
As a matter of fact,
E-                               G7
You?re getting used to life without him in your way.
A-   A-7              D
It?s so easy now, cos you got friends you can trust,

C               A/C#
Friends will be friends,
G/D                      E-7
When you?re in need of love they give you care and attention,
D               B/D#
Friends will be friends,
E-                        Eb+5
When you?re through with life and all hope is lost,
G/D               A/C#
Hold out your hand cos friends will be friends
D
Right till the end.

(Same as the other chorus)
It?s so easy now, cos you got friends you can trust,
Friends will be friends,
When you?re in need of love they give you care and attention,
Friends will be friends,
When you?re through with life and all hope is lost,
Hold out your hand cos friends
will be friends right till the end.

Friends will be friends,
When you?re in need of love they give you care and attention,
Friends will be friends,
When you?re through with life and all hope is lost,
Hold out your hand cos right till the end -
Friends will be friends.

Вверх


Friends Will Be
Friends (2
вариант)

solo:

G F                G F             ???
E|------------      --------------------|
B|----5____-3-      --5h6-5-------3h4-3-|
G|-----5__-3--      --5---5---7-5-3---3-|
D|-3/5--53---       --5h7-5-------3h5-3-|
A|------------      --------------------|
E|------------      /-------------------|

E|------------------------------------|
B|------------------------------------|
G|---------------7-9b11-7----9-11-12--|
D|-----5---5-7/9----------------------|
A|-5h7--------------------------------|
E|------------------------------------|

E|----------------------------12---------------|
B|-------------------------15------------------|
G|--11-12-14---12-14-14b16-------16b14--12-----|
D|------------------------------------------14-|
A|---------------------------------------------|
E|---------------------------------------------|

E|-------12---------------------------|
B|-----------------------________-----|
G|-12-14----14b16---14---12h14p12-11--|
D|------------------------------------|
A|------------------------------------|
E|------------------------------------|

E|-----------------------------------------|
B|--________-----______-----_____--------8-|
G|--11h12p11-9---9h11p9-7---7h9p7------7---|
D|--------------------------------10-9-----|
A|-----------------------------------------|
E|-----------------------------------------|

E|----------------------------------10b12----10-8-7---------|
B|-10b12___r10p8-10---12r10p8-7-8-------------------10-8...-|
G|----------------------------------------------------------|
D|----------------------------------------------------------|
A|----------------------------------------------------------|
E|----------------------------------------------------------|
warning: tape-transribed, not too reliable

Вверх


Fun It

sketch
E|-------------------------------------------------------|
B|-------------------------------------------------------|
G|-------------------------------------------------------|
D|-------------------------------------------------------|
A|-------------------------------------------------------|
E|-x-12---10---12-0-0-10---9---x---x---x-7-0-0-5---6---0-|

39"
E|-------------------------------------------------------------|
B|-------------------------------------------------------------|
G|-------------------------------------------------------------|
D|-------------7-5-5------9------5--5--------------5--5--7---9-|
A|---------x-x-0-2-3--5---7---0--2--3---x--x-x--0--2--3--5---7-|
E|-0-5-7-8-----------------------------------------------------|

E|---------------------------------------------------------|
B|---------------------------------------------------------|
G|---------------------------------------------------------|
D|----5--5----5--5--5--7---7-------2--2---------5--5--7--9-|
A|-0--2--3----0--2--3--5---9----0--2--3----x-0--2--3--5--7-|
E|---------------------------------------------------------|

E|----------------------------------------------------------|
B|----------------------------------------------------------|
G|----------------------------------------------------------|
D|----------------------------------------------------------|
A|----------------------------------------------------------|
E|-5--3--5--3-3-5-3-3-5--3-3-3-5--3--5--3-3-5-3-3-5--3-3-5/-|

E|-------------------------------------------|
B|-------------------------------------------|
G|-------------------------------------------|
D|-------------------------------------------|
A|-------------------------------------------|
E|-12-10-12-10-10-12-10-10-12-10-10-10-12-10-|

E|-----------------------------|
B|-----------------------------|
G|-----------------------------|
D|-----------------------------|
A|-----------------------------|
E|-12-10-10-12-10-10-12--10-10-|

E|---------------------------------------------------------|
B|---------------------------------------------------------|
G|---------------------------------------------------------|
D|---------------------------------------------------------|
A|------------------------------------------5--------------|
E|-5--3--5--3-3-5-3-3-5--3-3-3-5--3--5--3-3-5-3-3-5--3-3-3-|

E|-------------------------------------------------------|
B|-------------------------------------------------------|
G|------------------------/12--12--12--11/12--12--12--12-|
D|-9--9--9--9--9--9--9--9-/12--12--12--11/12--12--12--12-|
A|-9--9--9--9--9--9--9--9-/10--10--10---9/10--10--10--10-|
E|-7--7--7--7--7--7--7--7--------------------------------|

12"
E|--------|
B|-8--8-8-|
G|-7--7-7-|
D|-6--6-6-|
A|--------|
E|--------|

solos
47"      55"
E|-------|-----------------|------------------------------|
B|-15b17-|-----------------|------------------------------|
G|-------|-----------------|------------------------------|
D|-------|-------12h14-----|-----------12b----------------|
A|-------|-12h14-----------|-12--13-14-------12--10b------|
E|-------|-------------12--|---------------------------12-|
18"
E|--------------|--------------|
B|---5b---------|--------------|
G|---5b---------|--------------|
D|-*------7p5---|---5b---------|
A|------------7-|-7------7-5-7-|
E|--------------|--------------|
122"                    129"
E|----------------------|-14--14-12-|-------------------|
B|----------------------|-12--12-12-|-------------------|
G|----------------------|-12--12-12-|-------------------|
D|---------12---14------|-----------|---------12---14---|
A|-12h14----------------|-----------|-12h14-------------|
E|-------------------12-|-----------|-------------------|
144"   27"
E|-7/97-|--------------------------------|
B|------|--------------------------------|
G|-7/97-|--------------------------------|
D|------|--------------------------------|
A|------|-10b-----*-1412-*-10b-----------|
E|------|------------------------12--12v-|

E|------------------------------------------------|---------|
B|------------------------------------------------|---5b----|
G|------------------------------------------------|---5b----|
D|------------------------------------------------|-*-----7-|
A|------------------------10v----*-12p10----10----|---------|
E|-12-10---10-10-10-12-12----------------12----12-|---------|
227"
E|--------------------------------------------------|
B|--------------------------------------------------|
G|--------------------------------------------------|
D|-------12-------12-------12---------14p12---------|
A|-12h14----12h14----12h14----12h14--------14p12-10-|
E|--------------------------------------------------|
234"  246"
E|------|---------|
B|-*--5-|---11-12-|
G|----7-|---11-12-|
D|----6-|-x-11-12-|
A|------|---------|
E|------|---------|

E|-------------------------------------------------------------|
B|------------------------------------12b----------------------|
G|------------------------------------12b----------------------|
D|------------12-14-------------12-14----------------12-14-----|
A|-x-12-13-14----------12-13-14-----------x-12-13-14-----------|
E|------------------12--------------------------------------12-|

E|-------------------------------------------------------------|
B|--------------------15b17v-----------------------------------|
G|-------------12b---------------------------------------------|
D|-------12h14-----14-----------------12b-*--------------------|
A|-12h14---------------------12-13-14-------10b----------10----|
E|----------------------------------------------12-10-12----12-|

E|--------------------------------------|----------------|-----|
B|--------------------------------------|----------------|-----|
G|--------------------------------------|----------------|-0/--|
D|--------------------------------------|---14---12------|-/0--|
A|-----------10-----------------10v-x-x-|-x-12---10---14-|-----|
E|-10---12--------12---10---12----------|-------------12-| 2x -|

E|--------------------------------------------------------|
B|--------------------------------------------------------|
G|--------------------------------------------------------|
D|--------------------------------------------------------|
A|-13p12p10-12p10---------------10v---------------10v-----|
E|----------------12p10-10-12--------12---10-12--------12-|

E|------------------------------------|-----------|----|-------|
B|------------------------------12-12b|--------12b|----|---14b-|
G|--------------------------x-x-12-12b|--------12b|-0/-|---14b-|
D|-----------------12-x-14v-----------|x-x-x-x----|-/0-|-x-----|
A|-------10v-12h13--------------------|-----------|----|-------|
E|-10-12------------------------------|-----------| 2x |-------|

E|------------------------------------|------|
B|-12b--------------------------------|----5-|
G|-12b--------------------------------|-*--7-|
D|------14p12-14-------------12---14--|----6-|
A|-----------------12br-14------------|------|
E|------------------------------------|------|

Вверх


God Save The Queen

E|------------2----3-5---7---7---8---7-----5-----5---3---2---3-|
B|-8--8--10---3----2-3---8---8---8---8-----7-8---5---3---1---3-|
G|-7--9---9---2----2-2---7---9---9---7-----5-9---5---4---2---4-|
D|-9--9--10---0----2-4-----------------------9-------0---0-----|
A|10--7-----------------10---7-------5-----6-7---3-------------|
E|--------8----------------------8---------------------------3-|

Вверх


Good Company

E|-------11-14-------11-14-|-18__p17-18---1716---18p16---14-|
B|----12----------13-------|-14__p13-14---1312---14p12---11-|
G|-11----------14----------|--------------------------------|
D|-------------------------|-6-------6____3-------3___//4---|
A|-------------------------|--------------------------------|
E|-------------------------|--------------------------------|

E|-----------------------|-------------------------------------|
B|-----------------------|-------------------19-----16--17/18v-|
G|-----------20-18h20p18-|-18__h20p1817--18-----18-------------|
D|-----18-21-------------|-------------------------------------|
A|-20--------------------|-------------------------------------|
E|-----------------------|-------------------------------------|

E|---------14h16phphph--|--13/14____----------------------|
B|-------14-------------|-----------------------------14--|
G|-----15---------------|--------------13-14-14-13--------|
D|-16-------------------|-----------16-------------16-----|
A|----------------------|---------------------------------|
E|----------------------|---------------------------------|

E|-14-----------------|
B|----14--------------|
G|-------15-11h13hp..-|
D|--------------------|
A|--------------------|
E|--------------------|

Вверх


Good Old-Fashioned
Lover Boy

Eb                               Ab                 Gm     Cm
I can dim the lights and sing you songs full of sad things
Fm            Ab      Bb      Eb       BЬ
We can do the tango just for two
Eb                       Ab               Gm       Cm
I can serenade and gently play on your heart strings
Fm          Abm   Bb7     Eb  BЬ
Be your Valentino just for you
Eb   Eb   Cm   Gm Ab EЬ
Ooh love - Ooh Loverboy
Eb                           Cm  G
What?re you doin? tonight, hey boy -
Cm      Gm         Cm        Gm
Set my alarm, turn on my charm
Fm                 Abm      Bb7    EЬ
That?s because I?m a good old-fashioned loverboy
Abm                   Eb                   Eb7
Ooh let me feel your heartbeat (grow faster, faster)
Abm      Gb7            CЬ
Ooh Ooh can you feel my love heat
Cb           Gb7
Come on and sit on my hot-seat of love
Cb               Bb       EЬ
And tell me how do you feel right after-all
Ab            Gm Cm
I?d like for you and I to go romancing
Fm            Abm      Bb7      Eb   BЬ
Say the word - your wish is my command
Eb    Bb   Cm  GmAb EЬ
Ooh love - Ooh loverboy
Bb                Cm           G
What?re you doin? tonight, hey boy
Cm       Gm
Write my letter
Cm       Gm
Feel much better
Fm          Abm            Bb7     EЬ
I?ll use my fancy patter on the telephone
EЬ
When I?m not with you
EЬ
I think of you always
Bb7
I miss you -
(I miss those long hot summer nights)
Eb7
When I?m not with you
Bbm7
Think of me always
F7          Bb7   С7
I love you - Love you
Fm
Hey boy where do you get it from
Hey boy where did you go?
Abm
I learned my passion in the good old
Bb7           EЬ
fashioned school of loverboys-
(Bb Cm Gm Ab Eb Bb Cm G
Cm Gm Cm Gm Fm Ab Gm Abm Eb Bb Cm Gm Fm Abm Bb7)
Dining at the Ritz we?ll meet at nine precisely
I will pay the bill, you taste the wine
Driving back in style, in my saloon will do quite nicely
Just take me back to yours that will be fine
(Come on and get it)

Ooh love, Ooh loverboy
What?re you doin? tonight, hey boy -
Everything?s all right
Just hold on tight -
That?s because I?m a good old fashioned loverboy

Вверх


Great King Rat

let ring
E|---------------------------------------------------------|
B|---------------------------------------------------------|
G|-----------9------9p7------------------------------------|
D|-----------9------9p7------------------------------------|
A|-F.B.------7------7------5h7-5h7-5h7-5h7-5h7-5h7-5h7-5h7-|
E|--------0------0------0---0---0---0---0---0---0---0------|

left guitar
E|----------------------------------------------------------------------|
B|----------------------------------------------------------------------|
G|----------------------------------------------------------------------|
D|-17---17---17---17---1716---16---16---16---1615---15---15---15---1514-|
A|-17---17---17---17---1716---16---16---16---1615---15---15---15---1514-|
E|-16-0----0----0----0-------0----0----0----0-------0----0----0----0----|

E|------------------------------------------|
B|------------------------------------------|
G|------------------------------------------|
D|-1413----1312-----------------------------|
A|-1413----1312-trem------trem-up with---|--|
E|----------------down----F.B.--  vibrato  -|

right guitar Am  F E

|right: acoustic guitar
|Am G E Am (G) Am G E Am C Em C D C G Am D
|
|left: clean eletric
E|--------------------------------------------------------------|
B|--------------------------------------------------------------|
G|--------------------------------------------------------------|
D|-------------x---x-5h7-----7h5-----5h7----------------------7-|
A|--x-x-7---------------------------------5h7-------------------|
E|-------------------------------------------------5--5-5-5-----|

|right guitar:
|C Em C D C G Am D
|
|left guitar
|C Em C
|
E|-----------------------------------|
B|-----------------------------------|
G|-------7--------7--------7-------7-|
D|---7h9------7h9------7h9---------7-|
A|-----------------------------------|
E|-----------------------------------|

C G Am D

|right guitar (wah-wah)
E|-------------------------------|--------------------------------|
B|-------------------------------|--------------------------------|
G|-------------------------------|------9-------------------------|
D|--------------------7p5--------|------9-----------7-----x-x---x-|
A|-0---2----3---5/7-------7------|------7-----0-------------------|
E|----------------------------5--|--------------------------------|
|
|left guitar                                                      ??????????
E|-------|------------------------------------------------------|
B|-------|-0--1-------------------------------------------------|
G|-------|-0--2-------------------------------------------------|
D|-7/10--|-0--2---------x---x2----x2----------------------7p5---|
A|-5/8---|------------------------------0---2---3---5/7-------7-|
E|-------|------------------------------------------------------|

right guitar (with wah-wah) and left guitar
C Em C (D)

left guitar
E|-------------------------------------------------|
B|-------------------------------------------------|
G|-7---7----------7--------5---------7-------7---0-|
D|-7---7----7h9---7--------5-----7h9---------------|
A|-5---5-------------------5-----------------------|
E|-------------------------------------------------|

left and right guitar
C G A D

|right guitar (wah-wah)
E|---------------------------------------|
B|-------3-------------------------------|
G|-2-----0-------------------------------|
D|-2-----0------(1)--2-1---------------2-|
A|-0---------------------3-1-1-0-------0-|
E|-------------------------------2-0-0---|
|left guitar
E|----------------------------------------------------------------------|
B|-------------------------------(5)------------------------------------|
G|--------4-5---7---7/9-----97---5-4------------------------------------|
D|-5/7----------------------------------7---5-(0)---4/6----7h9---7/9-10-|
A|----------------------------------------------------------------------|
E|----------------------------------------------------------------------|

|right guitar (wah-wah)
E|-10b12-----very slow release-------------------------------------------|
B|-----------------------------------------------------------------------|
G|------------------------------7b9--7-5-7--7b8--b9-7-5--7-5-------------|
D|------------------------------------------------------(6)--7-5-7---(0)-|
A|-----------------------------------------------------------------------|
E|-----------------------------------------------------------------------|
|left guitar
E|-----------------------------------------------------------------------*-|
B|--------------13---15---b17vv--b17-17r15-13-15---15---15b17r15p13-15---*-|
G|-2/13-14---16----------------------------------------------------------*-|
D|-----------------------------------------------------------------------*-|
A|-----------------------------------------------------------------------*-|
E|-----------------------------------------------------------------------*-|
|
*---------15----------------------15-----------------|
*-15b17--------17r15-13---15b17--------17r15---------|
*--------------------------------------------14---14-|
*----------------------------------------------------|
*----------------------------------------------------|
*----------------------------------------------------|

|right guitar(wah-wah) and left rythm-guitar
| C Em C D
|left solo-guitar
E|---------------------------------------------------------------------------*-|
B|---------------------------------------------------8---10p8------------17--*-|
G|-----------------------7b9--9--9r7p54-5---5/7-9-------------------15------*--|
D|-------5---5----7-5-----------------------------------------8/16-----------*-|
A|-5/7-----------------------------------------------------------------------*-|
E|---------------------------------------------------------------------------*-|
|
*-----------------------------------------------------------------------*-|
*-----------------------------------------------------------------------*-|
*--17p14----------------------------------------------------------------*-|
*--------17---17---17p15------15-----------17p15-------15---------------*-|
*------------------------17--------17p15----------17---------17----17---*-|
*-----------------------------------------------------------------------*-|
|  C G A D
*----------------------------------------------------------------|
*------------------------------15-12------15--17-b18-b18-19vvr18-|
*-----------12-14-12----14b16--------14--------------------------|
*------14--------------------------------------------------------|
*-1513-----------------------------------------------------------|
*----------------------------------------------------------------|

|right guitar (wah-wah)
E|------------------------------------------5---------------5----------------*-|
B|----------------------------------------5-------5-----5-5---9-5------------*-|
G|-7b9-----4--5--4----4--4b6--r4--6--7b9------7b9---7b9-----------b9-7-5---5-*-|
D|------7-----------7----------------------------------------------------7---*-|
A|---------------------------------------------------------------------------*-|
E|---------------------------------------------------------------------------*-|
|
*---------------------------------------------10b12---10b12---*-|
*-----------------------------5--8b10-------------------------*-|
*-------------5------4--5--7------------9--7------------------*-|
*-6-5-----------7-----------------------9--7------------------*-|
*-------5-7---------------------------------------------------*-|
*-------------------------------------------------------------*-|
|
*-10b12--10--8--7--8p7h8p7-5-7-5---5-7-8-7-7-5--10b12-|
*-----------------------------------------------------|
*-----------------------------------------------------|
*-----------------------------------------------------|
*-----------------------------------------------------|
*-----------------------------------------------------|
|left guitar
E|---------------------------------------------------------------------------*-|
B|-------------------------------------------------------------------10------*-|
G|-----------------------------------------------------------7--7/9------12--*-|
D|-5h7----5h7----5h7p5h7p5---5h7---------------------7-5/7-------------------*-|
A|--------------------------------5h7---5--3-2-0---0-------------------------*-|
E|---------------------------------------------------------------------------*-|
|
*--------------------------------------------------------|
*-10-----------------------------------------------------|
*-----12-------------------------------------------------|
*---------13r12-10---12p10------12---12---12p10----------|
*--------------------------12-------------------12p10-12-|
*--------------------------------------------------------|

|left and right guitar
| Em C (D)
|left guitar
E|------------------------------------------|
B|------------------------------------------|
G|-------------7---------5---------7------7-|
D|-9p7----7h9-------7h9-------7h9---------7-|
A|------------------------------------------|
E|------------------------------------------|

left and right guitar
C G A D

|right guitar(acoustic):
| D         D         D     D      G  D     D       D     D  G
|left guitar
E|-2---------2---------2-----2---------2-----2-------2-----2------|--------|
B|-3---------3---------3-----3---------3-----3-------3-----3------|--------|
G|-2---------2---------2-----2---------2-----2-------2-----2------| riff A-|
D|-0---------0---------0-----0---------0-----0-------0-----0------|  (1)---|
A|-------------------------------3-2-0---------3-2-0----------3-2-|--------|
E|----------------------------------------------------------------|--------|

|right guitar(acoustic)
| A         D    A   A     D    A       D     A      A      D
|left guitar
E|-----------------------------------------------------------2-----|--------|
B|-----------------------------------------------------------3-----|--------|
G|-2----2---------2----2---------2-------------2-------------2-----| riff A-|
D|-2----2---------2----2---------2-------------2-------------0-----|  (2)---|
A|-0----0---------0----0---------0-------------0-----------0-------|--------|
E|----------3-2-0----------3-2-0---------3-2-00--------3-2---------|--------|

Repeat riff A ...------|
------|
--4---|
--5---|
--5---|
--3---|

Acoustic interlude:
E|------0-----------0----0--0--------7-------0--------------0--------|
B|--------0-------0--0--------0----------------8-----10-------10-----|
G|----------0---0-----0------------7--9--7-------7-------------------|
D|------------4--------5/7-------9-----9---9-------9------9--------9-|
A|-------------------------------------------------------------------|
E|-0---------2-------------------------------------------------------|

E|-----0------------------0-------7-------8-|
B|-------6-----8------------6-------6-------|
G|---------5-----5------------5-------5-----|
D|-----------7-----6------------7-------7---|
A|-0-------------------0--------------------|
E|------------------------------------------|

left and right acoustic guitars
Am
*   **   *   **   *   **   *   ** (rythm)

|right guitar:
E| Am G E   ----------------------------------------|
B|          ----------------------------------------|
G|          -5p2-2------5p2---0-2-------------------|
D|          ------------------------4/5-------------|
A|          -------------------------------0h2--5h7-|
E|          ----------------------------------------|
|left guitar
|Am G E Am Am G E

|right guitar
E|--------------------------------------------------------------------|
B|--------------------------------------------------------------------|
G|--------------------------------------------------------------------|
D|-7---------5/7---5------------7/9---7------------7/9---7------------|
A|--------------------7---6-5-3----------9---8-7-5----------9---8-7-5-|
E|--------------------------------------------------------------------|
|left guitar
E|-----------------------------------------------------------------------|
B|-----------------------------------------------------------------------|
G|-----------------------------------------------------------------------|
D|-5/7---5------------7---5------------9---7------------9---7----------x-|
A|----------7---6-5-3--------7---6-5-3--------9---8-7-5--------9---8-7-x-|
E|-----------------------------------------------------------------------|

|right guitar
E|-------------------------------------------------------|
B|-------------------------------------------------------|
G|---------------------(8)---10p8h10p8----------------8b-|
D|-10p8h10p8----10p8h10p8-------------10p8-------10---8b-|
A|----------10-----------10---------------10--9--8-------|
E|-------------------------------------------------------|
|left guitar
|      C                                      F# F

|right guitar
E|------------------------------------------------------|
B|---------------------------------------------------8b-|
G|---------------------------10p8h10p8---------------8b-|
D|-10p8h10p8----10p8h10p8-------------10p8-------10-----|
A|----------10-----------10---------------10--9--8------|
E|------------------------------------------------------|
|left guitar
| C                                           F# F

|right guitar
E|------------------------------------------------8-------------|
B|----------------------------------------------8----10b11---10-|
G|----------------------------10p8h10p8-10b12-------------------|
D|-10p8h10p8----10p8h10p8h10------------------------------------|
A|----------10--------------------------------------------------|
E|--------------------------------------------------------------|
|left guitar
|C                                                     F#    F

|right guitar
E|-----------------------------------8--------------8--------------8-8-8------|
B|-11r10p87-8p7-------------------8---11-8-----------11-8---------------11b13-|
G|---------------10-8-10-8-10b12------------10b12----------10b12--------------|
D|----------------------------------------------------------------------------|
A|----------------------------------------------------------------------------|
E|----------------------------------------------------------------------------|
|left guitar
|C                                                                 F      F#

|right guitar
E|------------------------------------------------------------------------|
B|-13p11-13---11b13---13p11-13---11b13---13p11------11b13-11b13---r11---8-|
G|---------------------------------------------12-------------------------|
D|------------------------------------------------------------------------|
A|------------------------------------------------------------------------|
E|------------------------------------------------------------------------|
|left guitar
| C                                      F

|right guitar
E|-11p8--10p8--11p8--10p8--11p8--10p8--11p8--10p8--11p8-----------|
B|-----8-----8-----8-----8-----8-----8-----8-----8-----8-8---11-8-|
G|----------------------------------------------------------------|
D|----------------------------------------------------------------|
A|----------------------------------------------------------------|
E|----------------------------------------------------------------|
|left guitar
|C                               F

|right guitar
E|-----------------------------------------------------------------|
B|-11p8--10p8--11p8--10p8--11p8--10p8--11p8--10p8--11p8--10--7---7-|
G|-----8-----8-----8-----8-----8-----8-----8-----8-----8-----------|
D|-----------------------------------------------------------------|
A|-----------------------------------------------------------------|
E|-----------------------------------------------------------------|
|left guitar
|C                            F

|right guitar
E|---------------------------------------------------------------------|
B|-7-------------------------------------------------------------------|
G|----10-8----8-10-8---------------------------------------------------|
D|---------10--------(8p)10-8----------------------------------------8-|
A|----------------------------108p6h8p6h8p6---6---8/9---8------8h10----|
E|-------------------------------------------8-------------------------|
|left guitar
| C                                      F

|right guitar
E|-------------------------------------------------------|
B|-------------------------------------------------------|
G|---------------------------10p8h10p8----------------8b-|
D|-10p8h10p8----10p8h10p8-------------10p8-------10---8b-|
A|----------10-----------10---------------10--9--8-------|
E|-------------------------------------------------------|
|left guitar
|C                                           F# F     D#

E|-------------------------------------------------------|
B|----------------------------------------------------8b-|
G|---------------------------10p8h10p8----------------8b-|
D|-10p8h10p8----10p8h10p8-------------10p8-------10------|
A|----------10-----------10---------------10--9--8-------|
E|-------------------------------------------------------|
|left guitar
|C                                                    D#

E|--------------------------------------------------------------|
B|----------------------------------------------------8---------|
G|---------------------------10p8h10p8----------------8-----0-0-|
D|-10p8h10p8----10p8h10p8-------------10---------10---8---------|
A|----------10-----------10---------------10--9--8--------------|
E|--------------------------------------------------------------|
|left guitar
| C                                                  D#

|right guitar
E|-----------12---------12-12----------12-----12-12---------12-|
B|-15b17---------15b17--------15b17----15b17--------15b17------|
G|-------------------------------------3-----------------------|
D|-------------------------------------------------------------|
A|-------------------------------------------------------------|
E|-------------------------------------------------------------|
|
*-12------12-12-12-12---------12-12-12-12---------12-----12----|
*-15b17---------------15b12---------------15b17------b17---b17-|
*--------------------------------------------------------------|
*--------------------------------------------------------------|
*--------------------------------------------------------------|
*--------------------------------------------------------------|

E|-------12-12-12-12-------14------14-14-14-14-15----15-15-15-15-15-*-|
B|-15b17----------15b17----17b19---------------18b20----------------*-|
G|------------------------------------------------------------------*-|
D|------------------------------------------------------------------*-|
A|------------------------------------------------------------------*-|
E|------------------------------------------------------------------*-|
|
*-------15-15-15-15-15-15-15-------17-17-17-17-17-17-17-17-20-------17-17...-|
*-18b20---------b20----------20b22---------b22----------------20b22------...-|
*----------------------------------------------------------------------------|
*----------------------------------------------------------------------------|
*----------------------------------------------------------------------------|
*----------------------------------------------------------------------------|
|left guitar
|A G E A (G) A G E A

left and right guitar:
C Em C

|left and right guitar
E|---------------------------------------|
B|---------------------------------------|
G|---------7----------7--------7-------7-|
D|----7h9--7-----7h9-------7h9---------7-|
A|---------------------------------------|
E|---------------------------------------|

left guitar
C G A D

Вверх


Hammer To Fall

solo
E|-19-19-17-16---------------19b21---19-17-16-------|
B|-------------19-17-16-----------------------19-17-|
G|--------------------------------------------------|
D|--------------------------------------------------|
A|--------------------------------------------------|
E|--------------------------------------------------|

E|-17b19----r17---17--17--17p16-17p16-----------------|
B|------------------------------------19p17-19p17-----|
G|------------------------------------------------19v-|
D|----------------------------------------------------|
A|----------------------------------------------------|
E|----------------------------------------------------|

E|--------------|
B|--------------|
G|--18-16-------|
D|--------19vvv-|
A|--------------|
E|--------------|

E|------------------------------------------------|
B|-19r17p15------------17---19b21_r19p17----------|
G|----------16vv--(0)--------------------19p16vvv-|
D|------------------------------------------------|
A|------------------------------------------------|
E|------------------------------------------------|

E|-----21b23___r21------|
B|-----------------19vv-|
G|--19------------------|
D|----------------------|
A|----------------------|
E|----------------------|

E|-17-17-17b19---17b19r17p15-19b21vv---17-19-19b20vvv-|
B|----------------------------------------------------|
G|----------------------------------------------------|
D|----------------------------------------------------|
A|----------------------------------------------------|
E|----------------------------------------------------|

E|---------------------------------------------|
B|---------------------------------------------|
G|-----------------------0-----0-2-0h2---0-2-3-|
D|-0h2p0-----0-2-3-2h3-----2-3---------3-------|
A|-------3-------------------------------------|
E|---------------------------------------------|

E|------------------------------|
B|------------------------------|
G|---2-3-2h3-2p0-2--3--5--7p5h7-|
D|------------------------------|
A|------------------------------|
E|------------------------------|

E|------------------------------------------------|
B|------------------------------______------------|
G|-----5-7-8vv----7-8p7-8p7-5-7-8h10p8-10b12rbrp9-|
D|-8----------------------------------------------|
A|------------------------------------------------|
E|------------------------------------------------|

E|---------------------------|
B|-----____------------------|
G|10p9-10p9----------9-10-12-|
D|----------12p10-12---------|
A|---------------------------|
E|---------------------------|

E|-----------------------------------------|
B|-------------------------13--15--15b17vv-|
G|-14-12h14p12----12-14h15-----------------|
D|-------------15--------------------------|
A|-----------------------------------------|
E|-----------------------------------------|

E|-------------------------------------------------------------|
B|-15-13-15p13-11h13-11-13-10-11-10p8-10p86-8-6-8-5-6-5--------|
G|-------------------------------------------------------7---6-|
D|-------------------------------------------------------------|
A|-------------------------------------------------------------|
E|-------------------------------------------------------------|

E|-------------------------------------12b14---12b14r12-10-|
B|--------10--12b14r12p10-12-b14v--------------------------|
G|-7-9-----------------------------------------------------|
D|---------------------------------------------------------|
A|---------------------------------------------------------|
E|---------------------------------------------------------|

E|-9-10-12----------------------------------|
B|-----------10---12---b14_r12p10-b14---10v-|
G|------------------------------------------|
D|------------------------------------------|
A|------------------------------------------|
E|------------------------------------------|

E|-17----16h17p16p14-----------------------------------|
B|-----------------------17--15--14p15-17--------------|
G|----------------------------------------14-16-16b18v-|
D|-----------------------------------------------------|
A|-----------------------------------------------------|
E|-----------------------------------------------------|

E|----------------------------------------------|
B|---17b19---17brp14----------------------------|
G|-------------------16-14p13-------------------|
D|----------------------------16-14-12-11-------|
A|----------------------------------------12-12-|
E|----------------------------------------------|

Вверх


Heaven For Everyone

C                     Bb   F   Bb
This could be heaven.
C                     Bb
This could be heaven.
F                     Bb   C
This could be heaven.

This could be heaven.
Bb     F
This could be heaven    for everyone.
Bb
This could be heaven.
C
This could be heaven.
Bb
This could be heaven.
F
This could be heaven for everyone.

Bb    C            Bb   F
In these days of cool    reflection,
Bb        C
you come to me    e|--5--3-------|
G|--------6--5-|

Bb    F
and everything   seems alright.
Bb     C        Bb   F
In these days of cold affections,
Bb     C        Bb           F
you sit by me - and everythings   fine.

C                         G/B
This could be heaven for everyone.
D                         A/C#
This world could be free, this world could be fun.
C                        G
This could be heaven for everyone.
D                         A/C#
This world could be free, this world could be one.

e|------------8--10--12--13--8~-------------|
B|--10-p8~--------------------------4-p3-p1-|

Bb     C         Bb  F
In this world of cool   deception,
Bb        C          Bb   F
just your smile can smooth my ride.
Bb          C        Bb  F
These troubled days of cool rejection, hmm
Bb         C              Bb      F
you come to me, soothe my troubled mind.

C                        G/B
Yeah, this could be heaven for everyone.
D                        A/C#
This world could be fed, this world could be fun.
C                       G
This should be love for everyone, yeah.
D                         A/C#
This world could be free, this world could be one.
C                           G/B
We should bring love to our daughters and sons.
Bb          F     C                        Dm    G    F
Love, love, love, this could be heaven for eve - ry - one.

You know that
Dm               C/E             F     G
this could be heaven for everyone.
Dm               C/E             F     G
this could be heaven for everyone.
Dm               C/E             D
This could be heaven for everyone.

G|---------------------4h5p4-------------------|
D|----4h8---42--2p0------------7p5p4--4p2--2p0-|

G|----------2-|  Irritating inaudible scale
D|----0-2-4                                 0h2--0h2--0h2p0-|

Screeching sound required for this section.
I have no idea how to do this, but
overdrive and increased treble helps. Any better ideas would be
appreciated.

e|----10-12-14-14--12p10--12p9---------10--14--15--17-17-15-14-|
B|-10---------------------------10~~--10-----------------------|

e|-15--14--12-----12--14--16--16~~--14--12--14--16--17~~-|
B|-------------12----------------------------------------|

e|-16--14--12--14--16--12--14--16--14--16--18--14--16--18~~-|
B|---------12--16--17--12--16--17--14--18--19--14--18--19~~-|

e|-------------------10--------------12-|
D            A/C#
Listen: what people do to other souls

e|--------------------12-------------------14-|
E                    B
they take their lives, destroy their goals.

e|----------------14---------------16-|
F#              C#/F
Their basic pride  and    dignity

e|---------19--|
E                     B
is stripped and torn and shown no pity
D                         E    F#
when this should be heaven for everyone.

C#                   B
This could be heaven.
F#                                                          B
This could be heaven.
>(This could be heaven for everyone.)
C#                                B       F#
This could be heaven, could be heaven for everyone.
>This could be heaven,
(this could be heaven.)
C#                                B       F#
This could be heaven, could be heaven for everyone.
>This could be heaven,
(this could be heaven.)
C#                                B       F#
This could be heaven, could be heaven for everyone.
>This could be heaven for
everyone.
C#                                B       F#
This could be heaven, could be heaven for everyone.
>This could be heaven.
(This could be
heaven.)
C#                   B
This could be heaven.
F#                      B
This could be heaven.
C#                   B
This could be heaven.
F#                      B
This could be heaven.
(This could be heaven)
C#                                B
This could be heaven
for everyone.
F#
For everyone

Вверх


m In Love With My Car

solos:
E|----------------------------------------------------|
B|------------------------------------------2-3-5b7v--|
G|-------0h2h4p2~4-p0-----------------0h2h4-----------|
D|-0h2h4--------------2-----0-----2h4-----------------|
A|-----------------------4----------------------------|
E|----------------------------------------------------|

E|-------------------------|
B|-r5p3-5p2-3p2------------|
G|---------------4p2-4p0h2-|
D|-------------------------|
A|-------------------------|
E|-------------------------|

37"
E|---------------------------------------------|
B|---------------------------------------------|
G|---------------14b16___r15b16r14p1214b16-----|
D|------------14-------------------------------|
A|------10-14----------------------------------|
E|-*-12----------------------------------------|

E|----------------------------------------|
B|-15b17----15--13--12--------------------|
G|----------------------b15_r14p12--------|
D|---------------------------------14-12--|
A|----------------------------------------|
E|----------------------------------------|

E|------------------------------|-------------------------|
B|-b20__r18-b20--b19-b20__r-17--|-------------------------|
G|------------------------------|-15__r14p12-14b15--------|
D|------------------------------|--------------------14---|
A|------------------------------|-------------------------|
E|------------------------------|-------------------------|

121"
E|--------------------------------|
B|--------------------------------|
G|-4p2----------------------7rrr4-|
D|--------3p2p0-----4/5-----------|
A|--------------2-----------------|
E|--------------------------------|

E|-----------------------------------------|
B|-----------------------------------------|
G|-7b9__-7--5--4--5--4~5-------------------|
D|------------------------7-5~7---54-------|
A|-------------------------------------7p5-|
E|-----------------------------------------|

143"
E|---------------------------------------------------|
B|---------------------------------------------------|
G|-----------------------2h4h5---4h5p4p2p0h2p0-------|
D|-2h4h5p4p2p0---0h2h4h5-----------------------4p2p0-|
A|---------------------------------------------------|
E|---------------------------------------------------|

E|---------------------------------------|
B|---------------------------------------|
G|----------------------------12h14b16v--|
D|----------------------12h14------------|
A|----------10--12--14-------------------|
E|-8//1012-------------------------------|

E|--------------------------------|
B|-15--17v-----15--17--b19_r17----|
G|-----------------------------14-|
D|--------------------------------|
A|--------------------------------|
E|--------------------------------|

E|--------------------------------------------------17---------|
B|-(17)b20---b19--17--15--17--17b19_r17p15--17--19------19b21v-|
G|-------------------------------------------------------------|
D|-------------------------------------------------------------|
A|-------------------------------------------------------------|
E|-------------------------------------------------------------|
234
E|------------|-----------|--------------------|
B|------------|-----------|--------------------|
G|-0h2h4p2----|-----------|-p2h4p2p0-----------|
D|---------0--|-5p4p2p0---|------------3---0---|
A|------------|-----------|--------------------|
E|------------|-----------|--------------------|

E|---------------------|-----------------|
B|---------------------|-5p3-5p3---3-----|
G|-4h5p4p2p0h2h4p2p0---|---------5---5b7-|
D|---------------------|-----------------|
A|---------------------|-----------------|
E|---------------------|-----------------|

E|-----------------------------------------------------|
B|-----------------------------------------------------|
G|-5----2---5p2-5p2-5p2--------------------------------|
D|----------------------5p3-5p3------------------------|
A|------------------------------5---5p3-5p3------------|
E|------------------------------------------5p0-5-3-1--|

E|-----------------------------|
B|------------------3---3-5b6v-|
G|----------------5---5--------|
D|----------6r5b6--------------|
A|--3-5-3-5--------------------|
E|-----------------------------|

two gtrs arr for one
E|-3-3----3-3--0-----0-2-2-|
B|-3-3----2-3--3--3--3-3-3-|
G|-0-0----2-2--2--2--2-2-2-|
D|-0-0----2-2--------0-0---|
A|-2-2---------------------|
E|-------------------------|

The chords:

Intro: D

Em G              D
The machine of a dream.
C                          Em                 G
Such a clean machine.     When the pistons a pumpin,
D                    C        Em
And the hubcaps all gleam.     When Im holding your wheel,
G                          D
All I hear is your gear,   When my hands on your grease gun,
C
Oh, its like a disease son.

Em                    G      D                  C
Im in love with my car.    Gotta feel for my automobile.
Em                 G
Get a grip on my boy racer rollerbar,
D                       C
Such a thril when your radials squeal.

A slide to B (4time)
Told my girl I just had to forget her,
B sl C (4times)
Rather, buy me a new carburetor,
So she made tracks saying this is the end now,
Cars dont talk back,
theyre just four wheeled friends now.
D

When Im holding your wheel,
All I hear is your gear,
When Im cruising in overdrive,
Dont have to listen to no run of
the mill talk jive.

Im in love with my car. Gotta feel for my automobile.
Im in love with my car. String back gloves in my automolove.

outro:D

Вверх


Innuendo

Этот проигрыш гитарист Queen?а Брайан Мэй играл, когда
заканчивалась первая часть песни. Проигрыш создан в стиле
фламенко играется в песне дважды:
1й раз - clean acoustic
2й раз - distortion

E|-55--------7-8-7-10-8-7-5-|
B|-5-5----------------------|
G|-5--5---------------------|
D|-7---7--------------------|
A|-7----7-------------------|
E|-5-----5------------------|

E|-33--------5-7-5-8-7-5-3-|
B|-3-3---------------------|
G|-4--4--------------------|
D|-5---5-------------------|
A|-5----5------------------|
E|-3-----3-----------------|

E|-11-------3-5-3-7-5-3-1-|
B|-1-1--------------------|
G|-2--2-------------------|
D|-3---3------------------|
A|-3----3-----------------|
E|-1-----1----------------|

E|-00--------------00-----------------------------|
B|-0-0-------------0-0----------------------------|
G|-1--1------2-2-2-1--1------2-2-2-1--------------|
D|-2---2-----3-3-3-2---2-----3-3-3-2--------------|
A|-2----2----3-3-3-2----2----3-3-3-2--------------|
E|-0-----0---0-0-0-0-----0---0-0-0-0--0-1-2-3-4-5-|

E|-55--------7-8-7-10-8-7-5-|
B|-5-5----------------------|
G|-5--5---------------------|
D|-7---7--------------------|
A|-7----7-------------------|
E|-5-----5------------------|

E|-33--------5-7-5-8-7-5-3-|
B|-3-3---------------------|
G|-4--4--------------------|
D|-5---5-------------------|
A|-5----5------------------|
E|-3-----3-----------------|

E|-11-------3-5-3-7-5-3-1-|
B|-1-1--------------------|
G|-2--2-------------------|
D|-3---3------------------|
A|-3----3-----------------|
E|-1-----1----------------|

E|-00--------------00-----------------------------|
B|-0-0-------------0-0----------------------------|
G|-1--1------2-2-2-1--1------2-2-2-1--------------|
D|-2---2-----3-3-3-2---2-----3-3-3-2--------------|
A|-2----2----3-3-3-2----2----3-3-3-2--------------|
E|-0-----0---0-0-0-0-----0---0-0-0-0--0-1-2-3-4-5-|

Вверх


Is This The World
We Created?

[Fade in]                   Pause
E|--5-----5-----5-----5----|
B|--7-----7-----7-----7----|
G|--7--7--7--7--7--7--7--7-|
D|--0-----0-----0-----0----|
A|-------------------------|
E|-------------------------|

Introduction:

E|-5---5---5---5---5---5---3---3-------------0-----|
B|-7---7---7---7---7---7---3-3-3-3-6---6---6-------|
G|-7-7-7-7-6-7-6-7-5-7-5-7-4---4---7---7---0---7---|
D|-0---0---0---0---0---0---0---0---8-8---7-8-----8-|
A|-----------------------------------------8-------|
E|---------------------------------6---------------|

E|---------------------7--10-|
B|--------------7--10--------|
G|--------7--9---------------|
D|--7--0---------------------|
A|--5------------------------|
E|---------------------------|

Verse:
Just look at all those ...
E|-----10-10-10-10-10-10-10--9-----9--7---|
B|-----7--7--7--7--7--7--7---7--7-----5---|
G|*----7--7--7--7--7--7--7---7--------7--*|
D|*-9------------------------7--------5--*|
A|----------------------------------------|
E|----------------------------------------|

So many lonely faces...
E|-----5--5--5--5-----5-----------|
B|-----5--5--5--3--3-----3--------|
G|-----0--0--0------------------0-|
D|--7-----------4------------2----|
A|--------------------------------|
E|--------------------------------|

E|--5--7--3-|-2--3--2--0-------------------------------3-|
B|----------|-------------2--0-----3----------------3----|
G|----------|-3--------------4-----4----------0--4-------|
D|----------|-4--------------5--------5-(4)-2------------|
A|----------|--------------------------------------------|
E|----------|--------------------------------------------|

Chorus:
[Strum]
E|--5~~~--5~~~--5--5--5--5--3-|
B|--7~~~--7~~~--7--7--7--7--3-|
G|--7~~~--6~~~--6--7--6--7--4-|
D|--0~~~--0~~~--0--0--0--0--0-|
A|----------------------------|
E|----------------------------|

Bm    F#m   A
E|--2~~~--2~~~--0~~~------------------------|
B|--3~~~--2~~~--2~~~---                    -|
G|--4~~~--2~~~--2~~~--- Go to introduction -|
D|--4~~~--4~~~--2~~~---                    -|
A|--2~~~--4~~~--0~~~------------------------|
E|--------2~~~------------------------------|

Comment: I basically only transcribed the first verse and
chorus. I then assume the that the second verse and
chorus are identical. BTW theyre not (but theres not
much difference).

Lyrics:

Is This the World We Created? (Mercury/May)

Verse 1	Just look at all those hungry mouths we have to feed
Take a look at all the suffering we breed
So many lonely faces scattered all around
Searching for what they need

Chorus	Is this the world we created
What did we do it for
Is this the world we invaded
Against the law
So it seems in the end
Is this what were all living for today
The world that we created

Verse 2	You know that every day a helpless child is born
Who needs some loving care inside a happy home
Somewhere a wealthy man is sitting on his throne
Waiting for life to go by

Chorus	Is this the world we created
We made it on our own
Is this the world we devasted
Right to the bone
If theres a God in the sky looking down
What can he think of what weve done
To the world that he created

Вверх


Its A Hard Life

solo
E|-----------------------------|
B|-----------------------------|
G|----15b17-17_r15p13-15-12----|
D|-13-----------------------13-|
A|-----------------------------|
E|-----------------------------|

E|---------------------------------------|
B|---------------------------------------|
G|----------12b13-12b13-13r12p10-12-8----|
D|-13-12h13---------------------------10-|
A|---------------------------------------|
E|---------------------------------------|

E|-------------------------10---11---13_r-11----------|
B|-----11b13__r11-/-13-----------------------11___/16-|
G|-8-8-15b17__r15-/-17--------------------------------|
D|----------------------------------------------------|
A|----------------------------------------------------|
E|----------------------------------------------------|

E|-15-15b_16-15b16rbrb-15/16-16b18-16--15---------18b_20-18-18-|
B|-----------------------------------------18--16-18b_20-18-18-|
G|------------------------------------------------19b_20-19-19-|
D|-------------------------------------------------------------|
A|-------------------------------------------------------------|
E|-------------------------------------------------------------|

Вверх


Its Late

E|--->0-<0-<0--------------------------------------------------|
B|<2-<3->3->2-------------3-3p2----------------2h3--2----------|
G|>2->2-<2-<2-2---------2-------2--------2-----2----2--2-------|
D|<2-<4->4->4---4-2---4---------------2-----2-------2-----2----|
A|>0->0-<0-<0-------5--------------0-------------------------0-|
E|-------------------------------------------------------------|

E|-------------------------------------------------------------|
B|------------2-------------3-3p2-2-------------2-------------3|
G|--------2---2---------2---2-2-----4p2-----2---2---------2---2|
D|--------2---2-----0---2---4-----------4p2-2---2-----0---2---4|
A|----0---0-x-0-----0---0-x-0---------------0-x-0-----0(2)0-x-0|
E|0h2---2-------0h2---2---------------------------0h2---2------|

E|---------------|
B|-3p2-2-2-------|
G|-2---2-4p2-2---|
D|(4p2)------2h4-|
A|---------------|
E|---------------|

E|----------------------------------------------------------|
B|--------2---------------------3--3p2-2-2--------------2---|
G|2-------2-------------2-------2--2-----4p2-2---2------2---|
D|2-------2---------0---2-------4------------4p2-2------2---|
A|0----x--0---------0---0----x--0----------------0----x-0---|
E|--------------0h2---2-------------------------------------|

E|------------------------------------|
B|-------------------3--3-2-2---------|
G|-----------2-------2--2-2-2-4p2-----|
D|-------0---2-------0----2-------2h4-|
A|-------0---0----x-------------------|
E|---0h2---2--------------------------|

E|--------------------------------------------------|
B|--------2---------------------3--3-------------2--|
G|2-------2-------------2-------2--2-------------2--|
D|2-------2---------0---2-------0--0-------------2--|
A|0----x--0---------0---0----x-------4-2-0-------0--|
E|--------------0h2---2--------------------2-0-2----|

E|-------------------------------|
B|------2---------7-------6------|
G|------2---------6-------6------|
D|------2---------6-------6------|
A|---x--0----x----4----x--4----x-|
E|-------------------------------|

E|2-------------2-----2------2----------------------------|
B|2-------------2-----3------3--3-2-2-----------------2---|
G|2----2--------2-----2------2--2-2---4p2-----2-------2---|
D|4-------4--------0--------------2-------2h4-2-------2---|
A|4-------------------------------------------0----x--0---|
E|-----------0--------------------------------------------|

E|-------------------0-----------------------------|
B|-------------------3-------2----2----2----2----2-|
G|-----------2-------2-------2----2----2----2----2-|
D|-------0---2-------2-------2----2----2----2----2-|
A|-------0---0----x----------0----0----0----0----0-|
E|---0h2---2---------------------------------------|

E|-------|---------------|-----|-----------|
B|10-9---|-2--2------2---|-9---|-2-------2-|
G|9--9---|-2--2------2---|-9---|-2-------2-|
D|9--9---|-2--2------2---|-9---|-2-------2-|
A|7--7...|-0--0--3h4--...|-7...|-0...3h4---|
E|-------|---------------|-0---|-----------|

E|---------------------------------------------------|
B|---------5----3---2------7--5--5--9--2--5--5--9--2-|
G|-9--7----6----2---2---9--7--6--6--9--2--6--7--9--2-|
D|-9--7----7..-2..-2---9--7--6--7--9--2--7--7--9--2--|
A|-7--5...----------0..-7--5..4..7..7..0..-..-..7..0-|
E|-------------------------------5-------------------|

E|--------------------------------------------------|
B|--------2---------------------3--3p2-2------------|
G|2-------2-------------2-------2--2-----4p2-----2--|
D|2-------2---------0---2-------4------------4p2-2--|
A|0----x--0---------0---0----x--0----------------0--|
E|--------------0h2---2-----------------------------|

E|--------------------------------------------|
B|-----2---------------------3--3-2-2---------|
G|-----2-------------2-------2--2-2-2-4p2-----|
D|-----2---------0---2-------4------------2p4-|
A|---x-0---0-----0---0----x-------------------|
E|-----------0h2---2--------------------------|

E|--------------------------------------------------|
B|--------2---------------------3--3p2-2------------|
G|2-------2-------------2-------2--2---2-4p2-----2--|
D|2-------2---------0---2-------4------------4p2-2--|
A|0----x--0---------0---0----x--0----------------0--|
E|--------------0h2---2-----------------------------|

E|--------------------------------------------|
B|-----2---------------------3--3-2-2---------|
G|-----2-------------2-------2--2-2-2-4p2-----|
D|-----2---------0---2-------4----2-------4p2-|
A|---x-0---------0---0----x-------------------|
E|-----------0h2---2--------------------------|

E|--------------------------------------------------|
B|--------2---------------------3--3----------------|
G|2-------2-------------2-------2--2-------------2--|
D|2-------2---------0---2-------0--0-------------2--|
A|0----x--0---------0---0------------4---2-0-----0--|
E|--------------0h2---2----------------------3b-----|

E|--------------------------------------------|
B|-----2---------------------3--3-2-2---------|
G|-----2-------------2-------2--2-2-2-4p2-----|
D|-----2---------0---2-------4----4-------4p2-|
A|-----0---------0---0----x-------------------|
E|-----------0h2---2--------------------------|

A C#sus4 c#

E|2---------------2------2---------------------------|
B|2---------2-----3------3--3p2-2-----------------2--|
G|2---------2-----2------2--2-----4p2-----2-------2--|
D|4---------2--4----------------------4p2-2-------2--|
A|4---------------------------------------0----x--0--|
E|-------0-------------------------------------------|

E|--------------------0---------------------------------0-|
B|--------------------3------2-----2--------------------3-|
G|------------2-------2------2-----2--------------2-----2-|
D|--------0---2-------2------2-----2----------0---2-----2-|
A|--------0---0----x---------0-----0----------0---0-------|
E|----0h2---2-----------------------------0h2---2---------|

AAAAA
...
39"
E|---------------------------------------------|
B|-----------------2----------------------2----|
G|-----------------2----------------------2----|
D|-----------------2----------------------2----|
A|*-----*-----*----0----------------------0----|
E|0--0--0--0--0--00------0--0--0--0--000-------|

E|-----------------------------------------------|
B|---------------------2-----------------------2-|
G|---------------------2-----------------------2-|
D|---------------------2------------------20---2-|
A|---------------------0--------------------4240-|
E|---0--0--0--0--0--0---------0--0--0--0---------|

E|------------------------------------------------|
B|------------------2-----------------------2-----|
G|------------------2-----------------------2-----|
D|------------------2-----------------------2-----|
A|------------------0-----------------------0-----|
E|0--0--0--0--0--0--------0--0--0--0--0--0----...-|

329
E|---------------------------------------------|
B|---------------------------------------------|
G|------------------------------------------4--|
D|------------------22----------------------4--|
A|------------------------------------------2--|
E|2--2--2--2--2--2--------2--2--2--2--2--220---|

E|--------------------------------------------|
B|--------------------------------------------|
G|------------------------------------------4-|
D|--------------2----------4----------------4-|
A|----------2h4-----4--2h4-4----------------2-|
E|----2--2-----------------2--2--2--2--2****--|

E|---------------------------------------------|
B|---------------------------------------------|
G|------------------------------------------4--|
D|----------2----------4--------------------4--|
A|------2h4-----4--2h4-4--------------------2--|
E|2--2--------------------2--2--2--2--2--220---|

E|-----------------------------------------------------|
B|-----------------------------------------------------|
G|-----------------------22----------------------------|
D|-----------------------22--------------4--5--5--5--5-|
A|------------------------------------4--4--5--5--5--5-|
E|----2--2--2--2--2--2--2-------2--2--2--2--3--3--3--3-|

E|--------------------------------|
B|--------------------------------|
G|--------------------------------|
D|10--10--10--10--10--10------10--|
A|10--10--10--10--10--10--12--10--|
E|-8---8---8---8---8---8---8---8--|

E|----------------------------------|-----|
B|----------------------------------|-----|
G|----------------------------------|-0//-|
D|-10--10--10--10--10--10--10--10---|-//0-|
A|-10--10--10--10--10--10--121012-8-|-----|
E|--8---8---8---8---8---8---8---8---|...--|

E|---------------------------------|-----|
B|---------------------------------|-----|
G|---------------------------------|-0/--|
D|---------------------------------|-/0--|
A|101013--12--1110--1012---8-8-8-8-|-----|
E|-8-8-8-8-8-8-8-8-8-8-8-8-8-8-8-8-| 7X -|

CG  DA  EB  E Esus4
...

536"
A Amaj7 D B E C# F#m A D A

E D A E D A E D A E D A

solos

330"
E|----------2---------------------------------------------|
B|2-5b__7-----5p2------------------------------------__---|
G|----------------2x2b------4p2---2h4b__6t12v--p6r__4brp2-|
D|----------------------4-------4-------------------------|
A|--------------------------------------------------------|
E|--------------------------------------------------------|

E|--------------------------------|
B|-------2h5-5b__7__t12v_p7r__5-x-|
G|---2h4--------------------------|
D|--------------------------------|
A|--------------------------------|
E|--------------------------------|

E|-------------------------------------------------|
B|(t12p)7h10t12p10b12t12p12___r10------------------|
G|--------------------------------6h9t12p9b11_t12--|
D|-------------------------------------------------|
A|-------------------------------------------------|
E|-------------------------------------------------|

E|----------------------------------------------------------|
B|---7h10t12p10b12t12p12v--(t12p)12r_10p8t12p10-7-----------|
G|--------------------------------------------(t12p)9b__11v-|
D|----------------------------------------------------------|
A|----------------------------------------------------------|
E|----------------------------------------------------------|

E|---------------------------------------------------|
B|---------------------------------------------------|
G|r9p8p6--t12p4t12b_14p6r_4p2--t12p4-3-2-------------|
D|------7--------------------------------4p2---2-----|
A|-------------------------------------------4---42--|
E|---------------------------------------------------|

E|------------------------------------|
B|---------___------------------------|
G|-(t12p)2-4b6t12p6r5t12p5r4t12v____r-|
D|------------------------------------|
A|------------------------------------|
E|------------------------------------|

356
E|-------------------------------------------------------------|
B|-------5-----------------------------------------------------|
G|7b___8----x-b8-b8-b8-b8-b8b-b8-b8-b8-b8-b8-b8-b8-b8-b8-b8-b8-|
D|--------8----------------------------------------------------|
A|-------------------------------------------------------------|
E|-------------------------------------------------------------|

E|------------------------------------|
B|----------------------6---5---6---5-|
G|--b8r7p5--7p5---5-----5---5---5---5-|
D|--------------7-----5-7---5---7---5-|
A|------------------------------------|
E|------------------------------------|

E|------------___-___-----------------------------------------|
B|8b10----10_r8p5-8p5-------___---5-6-5---------------5-5-6-5-|
G|--------------------8-7-5-7p5---5-5-5---------------5-5-5-5-|
D|------------------------------7-5---5-------___-5---5-5-7-5-|
A|--------------------------------------7-3-3-5/7---7---------|
E|------------------------------------------------------------|
_____
E|-------5--8p5h8-5--------------------------------------|
B|8b10--------------8-b10---8---4r3---3b__5__t12__p5r3p1-|
G|----------------------------------2--------------------|
D|-------------------------------------------------------|
A|-------------------------------------------------------|
E|-------------------------------------------------------|

E|-___-------------------------------6-6-6-6-6-6-6-6----|
B|-3p1---1-3b5t8---6b8t15___p8r6p5---8-8-8-8-8-8-8-8...-|
G|---------------------------------5--------------------|
D|-----2------------------------------------------------|
A|------------------------------------------------------|
E|------------------------------------------------------|

Вверх


I Want It All

E|----------7----7---------------10p7h10p7------------|
B|-10b12v-----10---10-7-10p7h10p7---------10p7-10b12v-|
G|----------------------------------------------------|
D|----------------------------------------------------|
A|----------------------------------------------------|
E|----------------------------------------------------|

E|--------------------------|
B|-10-7---------------------|
G|------9b10__r9--7-9-7h9p7-|
D|--------------------------|
A|--------------------------|
E|--------------------------|

E|17b19_r--17---14-----------------------17--|
B|-----------------17b19---17v-----17b19-----|
G|-------------------------------------------|
D|-------------------------------------------|
A|-------------------------------------------|
E|-------------------------------------------|

E|----------------------------------|
B|-19r17p15-17b19__r17p15-----------|
G|------------------------16---14vv-|
D|----------------------------------|
A|----------------------------------|
E|----------------------------------|
...

E|--------------------7-7--------------------------------------|
B|-9b_10-------7-10p7-----10b12--10b12___r10p7-----------------|
G|-9b_11---b11---------------------------------10r9p7-6-7--9---|
D|-----------------------------------------------------------7-|
A|-------------------------------------------------------------|
E|-------------------------------------------------------------|

E|----------____-7---------------------------|
B|-10b__12--7h10---7-------------------------|
G|-------------------10-9-7------------7-___-|
D|--------------------------9-7-----9----9p7-|
A|-------------------------------------------|
E|-------------------------------------------|

E|------------------10b12-10-7----7------7---------------------|
B|-----------------------------10---7h10---10b12__rbrp8--------|
G|-----7------------------------------------------------10p9p7-|
D|-9-------9p7-9--7--------------------------------------------|
A|-------------------------------------------------------------|
E|-------------------------------------------------------------|

|------------17p14--17p14-------------|
|--------15-------14-----1417b19--17v-|
/14--16----16-------------------------|
|-------------------------------------|
|-------------------------------------|
|-------------------------------------|

E|---------------------|
B|-17b19____r17p15-----|
G|----------------16vv-|
D|---------------------|
A|---------------------|
E|---------------------|

..
E|---------------------------------------------------------|
B|...15p14-------15p14-------17b19vv-----------------------|
G|---------16p14-------16p14-------------------------------|
D|--------------------------------------16__r14p12---------|
A|-------------------------------------------------14---14-|
E|---------------------------------------------------------|

E|----------------------------------|
B|----------------------------------|
G|----------------------------------|
D|----------------------------------|
A|----------------------12----12h14-|
E|-14-12p10-12p10-12/14----14-------|

E|-------------------------------|
B|-------------------------------|
G|-------________----------------|
D|-12-14b16r14p12-14p12----------|
A|----------------------14p12-14-|
E|-------------------------------|

E|-------------------------------------|
B|-15b17---15b17---r15v----7-6-5-------|
G|-------------------------------7-4-2-|
D|-------------------------------------|
A|-------------------------------------|
E|-------------------------------------|

E|---------------------------------|
B|-3p2-----3p2-----3p2-----3p2-----|
G|-----4p2-----4p2-----4p2-----4p2-|
D|---------------------------------|
A|---------------------------------|
E|---------------------------------|

E|-------------------------------------------------------|
B|-5b7vvvr5--3-5p3-2-3p2---------------------------------|
G|-----------------------4-x-4p2---2---------------------|
D|-------------------------------4---4p2p0-2p0-2p0-------|
A|-------------------------------------------------2p0-2-|
E|-------------------------------------------------------|

E|----------------------------------------------------------|
B|-15____-15vv17----17b19__r17p15--------------17b19--17b19-|
G|--------------------------------16--17rbr16---------------|
D|----------------------------------------------------------|
A|----------------------------------------------------------|
E|----------------------------------------------------------|

E|---------------------------|
B|-17b19--17b19__r17p15------|
G|----------------------16_v-|
D|---------------------------|
A|---------------------------|
E|---------------------------|

E|----------------10---10...-10/12---12---12----|
B|-13b15-13-13b15---b15-----------b17--b17--b17-|
G|----------------------------------------------|
D|----------------------------------------------|
A|----------------------------------------------|
E|----------------------------------------------|

E|-------------------------------------------------|
B|-19r17p15-14-15p14-------------------------------|
G|-------------------16p14-16p14----14-------------|
D|-------------------------------16----1614-12-----|
A|----------------------------------------------14-|
E|-------------------------------------------------|

...
E|---------------------8-7--5---5------------------------------|
B|-------5h8p5-8b10-----------8--------------------------------|
G|-7b9----------------------------7b9--7---5-7p5-4-------------|
D|-------------------------------------------------7-5---3---5-|
A|-------------------------------------------------------------|
E|-------------------------------------------------------------|

E|-17b19------17---14------------------------------------------|
B|----------------------18r_17_p15--17--15--14--15p14h15p14----|
G|----------------------------------------------------------16-|
D|-------------------------------------------------------------|
A|-------------------------------------------------------------|
E|-------------------------------------------------------------|

E|---------------------------------------------|
B|-14------------------------------------------|
G|----16-14h16p14----14------------------------|
D|----------------16----16-15-14-13--14--12___-|
A|---------------------------------14--14------|
E|---------------------------------------------|

Вверх


Jealousy

G|-----------------------11-------11/14------------------------|
D|----10-12-13-------9------13-12------------------------------|
A|-8------------8----------------------------------------------|
E|--------------------------------------3-----1-----5--5--5--5-|

G|------------------------------------------------5-5--3-----3-|
D|-8-6-5------------------10----5--------5-4-3-----------------|
A|-------8-6-----8h10-------------5----------------------------|
E|--------------------8-------------3--------------------------|

G|-3/15--15--15--15---13(6)-----8---8---8---6-6----|
D|-----------------------------8-----------8-------|
A|-------------------------6-----------------------|
E|-----------------------------------------------4-|

G|------------------------------------3--|
D|---------------------------------------|
A|---------3---3-1----6---5---3---1----1-|
E|-4-3----3------------------------------|

G|-----7/12-12(3)---------------7-----------9---------------10-|
D|--------------------------------7-8-5-7-8--------------------|
A|-6-5-----------------------------------------3-1-------------|
E|----------------2-2-2-2-3/135-------------------3-/-6-8/9----|

G|-9/10---17-19-20----20/17------------19146----11-------1411-|
D|---------------------------19--17------------------13-12----|
A|------------------------------------------------------------|
E|------------------------------------------------------------|

G|---------------------------------------5-3--3-----3--3--3--3-|
D|-8-6-5--------------10-5-----5-5-4-3-3----------3------------|
A|-------8-6-6-8h10--------5-----------------------------------|
E|------------------8--------3---------------------------------|

G|---------------8------------------------------------|
D|------------------8-----8---------------------------|
A|-6---6---6-6--------6-----6-----------------3---3-1-|
E|----------------------------9-8-4---4-3---3---------|

G|---------------------------------|
D|---------------------------------|
A|-1-6----5----3----1----1/6----65-|
E|---------------------------------|

G|-7/12-12-12-12-12-12------------|
D|--------------------------------|
A|-------------------------10-8-6-|
E|---------------------3-6--------|

G|-----------------7/12-12-12-/19----|
D|--------------------------------20-|
A|-5-5-3---------5-------------------|
E|-------5-2-3-3---------------------|

G|--------------7-----------9--------10--/12----/15-----/18/19-|
D|----------------7/8---7-8-----8-10---------------------------|
A|-9-----------------------------------------------------------|
E|---10-2-3-x-x------3/-------3--------------------------------|

Вверх


Jesus

Hm              F#          Hm
And then I saw Him in the crowd
Hm                   F#        Hm
A lot of people had gathered round Him
Hm                              F#     Hm
The beggars shouted Him and the lepers called Him
HM
The old man said nothing
F#     Hm
He just stared about him
D    A     G   A   D       A    G A
All going down to see the Lord Jesus  |
D    A     G   A   D      A     G A   |
All going down to see the Lord Jesus  |  1
D    A    G  F#                       |
All going do-wn..                     |


Then came a man before His feet he fell
Unclean said the leper and rang his bell
The palm of a hand touched his head
Go now go now youre a new man instead
( repetition 1)

It all began with the three wise men   |
Followed a star took them to Bethlehem |
And  made it heard throughout the land | 2
Born was the leader of man             |
(repetition 1)                         |

Solo

repetition 2

Вверх


Keep Yourself
Alive

right guitar
E|----------------------------------------|
B|----------------------------------------|
G|----------------------------------------|
D|----------------------------------------|
A|-slide down-----------------------------|
E|(11-11-11)-3111x11-111-111-1111111-1111-|

E|-------------------------------------|
B|-------------------------------------|
G|-------------------------------------|
D|-------------------------------------|
A|-------------------------------------|
E|-x1-1111111-1111111-1111111/55555555-|

E|-------------------------------------|
B|-------------------------------------|
G|-------------------------------------|
D|-------------------------------------|
A|-------------------------------------|
E|-555-555-555-555x5555555-555-555-555-|

E|---------------------------------|
B|---------------------------------|
G|---------------------------------|
D|---------------------------------|
A|---------------------------------|
E|-555-555-55555-55555-555-555-555-|
>
E|---------------------------------|
B|---------------------------------|
G|---------------------------------|
D|---------------------------------|
A|---------------------------------|
E|-55555555555-555-5555555-555-555-|

E|----------------------------------------|
B|----------------------------------------|
G|----------------------------------------|
D|-------------------7777-----------------|
A|-------------------7777-----------------|
E|-555555555555555-555555--555555-5555555-|

E|-----------------------------------------|
B|-----------------------------------------|
G|-----------------------------------------|
D|-----------7777--------------------------|
A|-----------7777--------------------------|
E|-555555555-5555555555555-5555555-5555555-|

E|-------------------------------|
B|-------------------------------|
G|-------------------------------|
D|-------------------------------|
A|-------------------------------|
E|-5-5555555-5555555555555555555-|

E|-------------------------------|
B|---------------7---------5---1-|
G|-----------5---7---------3---2-|
D|-----------5---7-----5---5---3-|
A|-----------3---5-----3---3---3-|
E|-5555555-55----------3-------1-|

left guitar (8")
E|----------------------------------------------------------|
B|-------------------------7b8-7---8r7p5---7--5-------------|
G|-------------------------7b9-7---9r7p5---7--6---7p5---5-7-|
D|---------------------------------------------------7------|
A|----------------------------------------------------------|
E|-55555-5-55555-5555555x55---------------------------------|

E|-----------------------------------|
B|-b8-7---8r7p5---7--5---------------|
G|-b9-7---9r7p5---7--6---------------|
D|--------------7-------7p5---5-7----|
A|-------------------------7---------|
E|-----------------------------------|

E|-------------------------------------|
B|-0x7b8-7---8r7p5------5--------------|
G|---7b9-7---9r7p5---7--6--------------|
D|-----------------7---------7p5---5-7-|
A|------------------------------7------|
E|-------------------------------------|

E|--------------------------------------|
B|-7b8-7---8r7p5---7--5-----------------|
G|-7b9-7---9r7p5---7--6-----------------|
D|---------------7--------7p5---5-7-----|
A|---------------------------7----------|
E|--------------------------------------|

E|---------------------------------------|
B|-7b8-7---8r7p5---7--5---------------5b-|
G|-7b9-7---9r7p5---7--6---------------5b-|
D|---------------7--------7p5---5-7------|
A|---------------------------7-----------|
E|---------------------------------------|

E|-----------------------------------------------|
B|-5-7b8-7---8r7---7--5--------------------5---1-|
G|-5-7b9-7---9r7---7--6---------5-7--------3---2-|
D|--------------07--------7p5---5-7----5---5---3-|
A|---------------------------7---------3---3---3-|
E|-------------------------------------3-------1-|

|right guitar
E|-------------------------------------------------------------|
B|--------------------------------------------------6----------|
G|----------------------6-------5--5---------------4-----------|
D|---------------5-5----6---6---5-----------5---5-/-6----------|
A|---------------3---3--4---6---3-----------3---3-/-4----------|
E|-1-111........-3---3------4--------1-1...-3---------4-44.-5.-|
|left guitar
|               C      C#7 G#  C    F      C       C#7 G#   A

midle guitar
E|----------------------|
B|----------------------|
G|----------9---12b14vv-|
D|-7---9/11-------------|
A|----------------------|
E|----------------------|

"keep yourself alive"
|right and left guitar
|D  A  D C# B G A A D
|midle guitar
E|----------------------------------------------|
B|----------------------------------------------|
G|----------------------------------------------|
D|-7--8--9-/12--12----------12---12h14p12----12-|
A|--------------------12h14---------------14----|
E|----------------------------------------------|

right guitar
E|-------------------------------------------------------------|
B|-------------------------------------------------------------|
G|-------------------------------------------------------------|
D|--------------------------------------------------------77777|
A|--------------------------------------------------------77777|
E|55555-555-555-555555555-5555555555555-555555555555555-5-55555|
>
E|---------------------------------------|
B|---------------------------------------|
G|---------------------------------------|
D|----------------------------77777-777--|
A|----------------------------77777-777--|
E|-(5)55555-5555555-5555555-5555555-555--|

E|-----------------------------------|
B|-----------------------------------|
G|-----------------------------------|
D|-----------------------------------|
A|-----------------------------------|
E|55-555-555-555-555-555-555-555-555-|

E|---------------------------------------------------------|
B|-------------------------------------------------------1-|
G|-------------------------------------------------5-7---2-|
D|-------------------------------------------------5-7---3-|
A|-------------------------------------------------3-5---3-|
E|-555-5555555-555-555-555555555-555-5555-55-555555------1-|

left guitar
E|-------------------------------------|
B|-b8-7---8r7p5---7--5-----------------|
G|-b9-7---9r7p5---7--6-----------------|
D|--------------7-------7p5---5-7------|
A|-------------------------7-----------|
E|-------------------------------------|

E|-----------------------------------|
B|-7b8-7---8r7p5---7--5--------------|
G|-7b9-7---9r7p5---7--6--------------|
D|---------------7---------7p5---5-7-|
A|----------------------------7------|
E|-----------------------------------|

E|--------------------------------------|
B|-7h8---8-8-7-5---5----7h8---8-8-7-5---|
G|-7h9---9-9-7-6---6----7h9---9-9-7-5h6-|
D|-----------------7----7---------------|
A|--------------------------------------|
E|--------------------------------------|

E|------------------------------------|
B|---5----7h8---8-8---8/10-10---10-10-|
G|---6----7h9---9-9---9/11-11---11-11-|
D|---7----7-----7-7---7---------------|
A|------------------------------------|
E|------------------------------------|

E|-------------------------------------------------------------|
B|/12---12-12-12-12-/14---7b8-7---8r7p5---7--5-----------------|
G|/12---12-12-12-12-/14---7b9-7---9r7p5---7--6--------5-7--/10-|
D|/12---12-12-12-12-/14-----------------7-------7p5---5-7--/10-|
A|--------------------------------------------------7--3-5--/8-|
E|-------------------------------------------------------------|

E|-------------------------------------------------------------|
B|----------------5---6---6-4-----1----------5--5-6----6-4-----|
G|----------3-2---5---6---6-5-5-5-2----------5--5-6----6-5---6-|
D|----------3-3---5---6---6-6-6-5-3----------5--5-6----6-6---7-|
A|----------------3---4---4-6-6-3-3----------3--3-4----4-6---7-|
E|-1-111...1----------------4-----1-/5-555...------------4---5-|
|left guitar
|                C   C#    G#  C        xxx C    C#     G#
midle guitar fill
E|---------------------|
B|---------------------|
G|---------------------|
D|-5h7---5-------------|
A|--------76---3-----5-|
E|----------------5----|

left and right guitar
D  A  D C# B G A A D

guitar fill (two guitars arr. for one)
E|---------------------------------------------------|
B|---------------------------------------------------|
G|--right----left------------------------------------|
D|-11p9h11p9-7--8--9/12--12---16r14p12---------12-14-|
A|-------------------------------------14---14-------|
E|---------------------------------------------------|

|right guitar
E|----------------------------------------------------|
B|-1--------------------------------------------------|
G|-2---2/10---11--b12vv-107--5--6--7---9b10-9v---7--5-|
D|-3--------------------------------------------------|
A|-3--------------------------------------------------|
E|-1--------------------------------------------------|

E|-------------------------------------------------------|
B|-------------------------------------------------------|
G|-5-5-5-5-5---5-5-5-5-5---5--6--7-7-9b10---7------------|
D|--------7-----------7-----------------------10-8-7-5-3-|
A|-------------------------------------------------------|
E|-------------------------------------------------------|

left guitar I
E|------------------------------------|
B|-13---15-16-17vvv-15b18--15-13--15--|
G|------------------------------------|
D|------------------------------------|
A|------------------------------------|
E|------------------------------------|

E|---------------------------------------|
B|----------------13b15---13-11-10-------|
G|-14p12-14p12-10------------------12b14-|
D|---------------------------------------|
A|---------------------------------------|
E|---------------------------------------|

E|------------------------------------------------|
B|------------------------------------------------|
G|-14r12p10----10----12b14--b14--b14r12p10----10--|
D|----------12-----------------------------12-----|
A|------------------------------------------------|
E|------------------------------------------------|

E|-----------------------------|
B|-----------------------------|
G|--12b14--b14-b14-14r12p10----|
D|--------------------------12-|
A|-----------------------------|
E|-----------------------------|

E|-------------------------------------------|
B|---------------------13-------13-------13--|
G|-12b14--12-----12b14----12b14----12b14-----|
D|-------------------------------------------|
A|-------------------------------------------|
E|-------------------------------------------|

E|-----------------------------------|
B|------13---------------------------|
G|12b14-----14r12p10--------------10-|
D|-------------------12p10--10h12----|
A|-----------------------------------|
E|-----------------------------------|

left guitar II
E|------------------------------------------------------------|
B|-3p2p0h2h3p2p0h2-10-11-12-b13-13r11_p10---------------------|
G|---------------------------------------10-10-9-9-7----12b14-|
D|------------------------------------------------------------|
A|------------------------------------------------------------|
E|------------------------------------------------------------|

E|-------------------------------------------------------------|
B|-------------------------------------------------------------|
G|-12-10-----------------10-10-10-10----10-10-10-10----10----9-|
D|-------12-10---8--8--7-------------12-------------12----12---|
A|-------------------------------------------------------------|
E|-------------------------------------------------------------|

E|---------------------------|
B|---------------------------|
G|-10--9--7--10--7-----------|
D|----------------10-8-7-5-3-|
A|---------------------------|
E|---------------------------|

left and right guitar
D (G) D  A  D F# B G A A E

right guitar
E|----------------|
B|-------14b15-14-|
G|-------14b16-14-|
D|----------------|
A|-0---0----------|
E|----------------|

|right guitar
E|----------------------------14-15-16-b17vv-|
B|----------------14-15-16-17----------------|
G|-------13-14-16----------------------------|
D|-14-16-------------------------------------|
A|-------------------------------------------|
E|-------------------------------------------|
|left guitar
E|-------------------------------------------|
B|-------------------------------12-13-b14vv-|
G|-------------------11-12-13-14-------------|
D|----------11-12-14-------------------------|
A|-11-12-14----------------------------------|
E|-------------------------------------------|
|midle guitar
E|-------------------------------------------|
B|----------------------------14-15-16-b17vv-|
G|----------------13-14-15-16----------------|
D|----------14-16----------------------------|
A|-14-16-17----------------------------------|
E|-------------------------------------------|

right guitar
D (G) D  A  D F# B G A A D
left guitar
E|--------------------------------------------|
B|--------------------------------------------|
G|--------------------------------------------|
D|-7--8--9/12--12---------12---12h14p12----12-|
A|------------------12h14---------------14----|
E|--------------------------------------------|

right guitar
F (A#) F  C  F A D A# C C
D (G) D  A  D F# B G A A D
B (E) B  F# ... B ...
left guitar
E|-------------------------------------------------------------|
B|-------------------------------------------------------------|
G|-------------------------------------------------------------|
D|-9p7--8--9/12-12-14-14b16-14-14b16-14-14b16-b16-14-12b-9-8-9-|
A|-------------------------------------------------------------|
E|-------------------------------------------------------------|

E|------7------------------------7-----7-----7--|
B|--------10p7-10b12-b11v-7---------------------|
G|-9b11---------------------9b11---b11---b11----|
D|----------------------------------------------|
A|----------------------------------------------|
E|----------------------------------------------|

E|----7-------------------|
B|------------------------|
G|b11---11r9p7---9-7----4-|
D|-------------9-----9-4--|
A|----------------------2-|
E|------------------------|

Вверх


Killer Queen

12"/left/riff A
E|-----------------------------------------------------|
B|-----------------------------------------------------|
G|-8--8--7--7--6--6--5--5--4--4--3--3--3--3-1----------|
D|---------------------------------------------------x-|
A|------------------------------------------------1----|
E|-----------------------------------------------------|

38"/left/riff B ---bluff---
|----5---------------------------------|
|----5------6--------------------------|
|----6------7-----4-------9--------7---|
|-7--7------7-----5------10--------8---|
|-7------5--------5------10----10--8-3-|
|-5-----5------3-----38---------8--6-1-|

44"/middle/three guitars arranged for one
E|-------------------13-10-13b15----------------|
B|-------------------15-15-15b16----------------|
G|----10b12-10b12-------------------10b12-10b12-|
D|----12b13-12b13----12-12-12b13----12b13-12b13-|
A|----13----13----------------------13----13----|
E|-1--1-----1-----------------------------------|

56"/left and right guitars
E|---------------------------|
B|-------------------left:  -|
G|-----right---------riff A--|
D|-----10b12-8-10----8-------|
A|booth-----------10---------|
E|-8-------------------------|

1?26/left
E|---------------------------------------------------|
B|-------------6------------6-----3----4-----3-------|
G|------6------7-----6------7-----4----5-----4--5----|
D|------7------7-----7------7-----5----5-----5----33-|
A|------7---5--------7---5--------5--3-------5-------|
E|-1/5-----5------5-----5------3----------3----------|

1?26"/middle
E|--------------------------5-6---5---------------3------------|
B|-7b9---b9--b9v--8--6-5--------8---6-5----b8-r-6---4p3--------|
G|-----------------------7v-------------7---------------5v-(0)-|
D|-------------------------------------------------------------|
A|-------------------------------------------------------------|
E|-------------------------------------------------------------|

E|-3--------------------------------|
B|---4-6-3-4-3----------------------|
G|-------------52-------------------|
D|-----------------3-3---3-3---3-h3-|
A|----------------------------------|
E|----------------------------------|

1?35"/middle/three guitars
E|--------------------------------------------|
B|--------------------------------------------|
G|-10b12-10b12---10b12-10b12---12-13-14/17----|
D|-12b13-12b13---12b13-12b13---13-14-15-17b19-|
A|-13----13------13----13------13-14-15/20----|
E|--------------------------------------------|

solo/middle
E|------------------------13---13-10h11p10-----|
B|-13---13--11-13r11-----------------------13--|
G|-------------------12------------------------|
D|---------------------------------------------|
A|---------------------------------------------|
E|---------------------------------------------|

E|---------------------------|
B|-----13---13-r12--13r11----|
G|--12--------------------12-|
D|---------------------------|
A|---------------------------|
E|---------------------------|

E|-----------------------------------------------------|
B|---x15---15-12-13p12-15p13-16p15-18p16-18b20---r18---|
G|--x--------------------------------------------------|
D|-x---------------------------------------------------|
A|-----------------------------------------------------|
E|-----------------------------------------------------|

E|----------15----|
B|-16---18-----16-|
G|----------------|
D|----------------|
A|----------------|
E|----------------|

E|-----------------------------------------------------|
B|-20r18--p16------18--------------16-18b20--b20-20r18-|
G|------------16-------1615---17-----------------------|
D|-----------------------------------------------------|
A|-----------------------------------------------------|
E|-----------------------------------------------------|

E|--------18---------------------|
B|--18r20----b20---b20--b20r21vv-|
G|-------------------------------|
D|-------------------------------|
A|-------------------------------|
E|-------------------------------|

1?49"/right guitar
E|-----------------------------------------------------|
B|-16---15-------14---16-13------14--------------------|
G|-----------15----------------------12-11--11-12--14--|
D|-----------------------------------------------------|
A|-----------------------------------------------------|
E|-------------------------(0h1)-----------------------|

E|-----------------|
B|--14b15--b15--14-|
G|-----------------|
D|-----------------|
A|-----------------|
E|-----------------|

E|-------14--------------------|
B|-14b15----b15--b15--b15b16vv-|
G|-----------------------------|
D|-----------------------------|
A|-----------------------------|
E|-----------------------------|

1?49"/left guitar
E|-----------------------------------------------------|
B|------------13-------13--------------12-15--15--15---|
G|-15--15--15-----13-------13-13---13------------------|
D|-----------------------------------------------------|
A|-----------------------------------------------------|
E|-----------------------------------------------------|

E|-------------------------|
B|--------16---------13/15-|
G|--14/15----15--15--------|
D|-------------------------|
A|-------------------------|
E|-------------------------|

2?1"/right guitar: G Cm G Cm A# D# A# D# D

2?04"/three guitars/wah-wah
G|----------|
D|----------|
A|-17-15----|
E|-17-15-17-|
|-18-17-18&15-|
|-------------|

2?13"/left fading to right
E|----------------|-------------|
B|----------------|-------------|
G|-10-8-----------|-------------|
D|------10-8-7----|-3-1---------|
A|-------------8--|-----3-1-0---|
E|----------------|-----------1-|

(2?17-2?25": the multitrack guitarsolo is not presented here)

2?28"/left guitar :  riff B

2?35"
E|------------------------|-14b16-b16...-|
B|------------------------|-15b16-b16...-|
G|-10b12---10b12-10b12----|-14b16-b16...-|
D|-12b13---12b13-12b13----|--------------|
A|-12b13---12b13-12b13----|--------------|
E|------------------------|--------------|

left     right
E|-20r18-15---------...-|
B|----------20r18-16...-|
G|------------------...-|
D|------------------...-|
A|------------------...-|
E|------------------...-|

Cm               Bb
She keeps Moet and Chandon in her pretty cabinet,

Cm                             Bb             Eb
"Let them eat cake," she says, just like Mary Antoinette.

Bb/D       Eb7/Db       Ab/C
A built in remedy for Kruschev and Kennedy,

Abm/Cb      Eb/Bb      Bb11
And any time an invitation you can decline.

G7         Cm          Bb7            Eb
Caviar and cigarettes, well versed in etiquette,

D7          Gm     F7      Bb     Dm/A
Extraordinarily nice.  She?s a Killer Queen,

Gm         Dm        Gm              A7    Dm
Gunpowder, gelatine, dynamite with a laser beam,

G7                      C    Bb
Guaranteed to blow your mind, anytime, ooh.

A7          Dm               G7         Cm       C Bb
Recommended at the price, insatiable an appetite,

Wanna try?

F Bb/F | F7 Bb/F | F Bb | F7 Bb/F

Cm                     Bb
To avoid complications, she never kept the same address,

Cm                  Bb                Eb
In conversation she spoke just like a baroness.

Bb/D        Eb7/Db         Ab/C
Met a man from China, went down to Geisha Minah,

Abm/Cb          Eb/Bb             Bb11
Then again incidentally if you?re that way inclined.

G7             Cm
Perfume came naturally from Paris,

Bb7               Eb
For cars she couldn?t care less,

D7                 G7    F7      Bb     Dm/A
Fastidious and precise.  She?s a Killer Queen,

Gm          Dm        Gm              A7    Dm
Gun powder, gelatine, dynamite with a laser beam,

G7                      C   Bb
Guaranteed to blow your mind, anytime, ooh.

A Dm | A Dm | G7 Cm | G7 Cm | Eb/F | % | F E/F F |

Cm | Bb | Cm | Bb | Eb Bb/D | Eb7/Db Ab/C | Abm/Cb Eb/Bb |

Bb7 | Eb/Bb | Bb7

G7            Cm          G7           Cm
Drop of a hat, she?s as willing as, playful as a pussycat,

Bb          Eb
Then momentarily out of action,

Bb          Eb             D7         Gm    F
Temporarily out of gas; to absolutely drive you

Bb  F Bbm          F                       Bb     Dm/A
Wild, wild. (She?s out to get you) She?s a Killer Queen,

Gm         Dm        Gm              A7    Dm
Gunpowder, gelatine, dynamite with a laser beam,

G7                      C   Bb
Guaranteed to blow your mind, anytime, ooh.

A7          D7            G7            Cm       C Bb
Recommended at the price, insatiable an appetite,

What a drag!

F Bb/F | F7 Bb/F | F Bb | F7 Bb/F | Eb to fade...

Вверх


Lazing On The
Sunday Afternoon

guitar solo:
middle

E|-3//17---17-16---17-14--------------------------|
B|-------------------------14-14------------------|
G|-------------------------------16-14-16b18v-----|
D|------------------------------------------------|
A|------------------------------------------------|
E|------------------------------------------------|

E|----/17---16-14---16----------------------------------*-|
B|---------------------17---14-15-16-17---16-15-17-14---*-|
G|------------------------------------------------------*-|
D|------------------------------------------------------*-|
A|------------------------------------------------------*-|
E|------------------------------------------------------*-|

left
E|--------------------------------------------------------|
B|-2///314---14-13---14-10---10-10-----------------7//14--|
G|----------------------------------------------(0)-------|
D|---------------------------------12-11-12b14------------|
A|--------------------------------------------------------|
E|--------------------------------------------------------|

E|--------------------------------------------|
B|--14------14--------------------------------|
G|-----14--------------------14---13-12-14-11-|
D|-------------14---14-14-14------------------|
A|--------------------------------------------|
E|--------------------------------------------|

right
E|--------------------------------------------------------|
B|-2//17---17-16---17-14---14-14-------------------8//17--|
G|--------------------------------------------------------|
D|-------------------------------16-14-18b19v-------------|
A|--------------------------------------------------------|
E|--------------------------------------------------------|

E|--------------------------------------------|
B|--17-14---17---------------14---13-12-14-11-|
G|-------------14---14-16-17------------------|
D|--------------------------------------------|
A|--------------------------------------------|
E|--------------------------------------------|

E|------------------------------------------------------------|
B|17b19-17-15-14----------------------------------------------|
G|---------------16br-14-16b17-16-14h16p14--------------------|
D|----------------------------------------16p14---14-14----16-|
A|------------------------------------------------------16----|
E|------------------------------------------------------------|

middle
E|------------------------------------------------------------|
B|----------------------------------------------------17///22-|
G|------------------14-13h14p13------16b18---16-14------------|
D|----------14-16-----------------14--------------------------|
A|-16-17------------------------------------------------------|
E|------------------------------------------------------------|

left
E|--------------------------------------|
B|--------------------------------------|
G|----------------11-9-----11b13---11-9-|
D|---------11-12---------9--------------|
A|-11-12--------------------------------|
E|--------------------------------------|

right
E|--------------------------------------------|
B|--------------------------------------------|
G|--------------------------------------------|
D|---------------11-9h11p9------12b14---12-11-|
A|-8-9---11-12---------------11---------------|
E|--------------------------------------------|

Вверх


Leaving Home Aint
Easy

Intro:
< > < > < > <  > < > < > < >  < >   < >  <  >  < <
E|-------------------------------------------------|
B|-1---3---6---65--1---3---4---64---6/8--108--10---|
G|-2---4---7---76--2---4---3---53---5/7---97-----9-|< : fade in
D|-1---3---9---97--1---3---5---75---7/9--119----11-|> : fade out
A|-------------------------------------------------|
E|-------------------------------------------------|

acoustic guitar:
E|------------------------------------------------------------|
B|----------------------------4----6-4---6-8--10-8-10-2--3-2--|
G|-2--------------------------3----5-3---5-7---9-7-11-2--2-2--|
D|-2--------------------------5----7-5---7-9--11-9-12-2--3-2--|
A|-0--------------------------0----0-0---0-0---0-0--0-0--0-0--|
E|------------------------------------------------------------|

Em      A          Em7         A
I take a step outside and I breathe the air
Em       A          C#m F#m
And I slam the door and Im on my way
Bm       E           Bm
I wont lay no blame I wont call you
E                Bm      E
names Cause Ive made my break
C#         F#m          C#
And I wont look back  Ive turned my
F#m           Dmaj7     G
back to those endless games.

The second verse is the same except :
Bm            E
.... Shaking dust from my shoes  Theres a
Bm     E                Bm
road ahead And theres  no way  back
D            E
home  (No way)   But I have to say

A V.    Em7 V.     D V.                       E VII.(slide down)
Leavin home aint easy (Oh I never thought it would be easy)
A V.    Em7 V.    D V.                    E VII. (s.d)
Leavin all  you  own (Oh is the main thing calling me back ?)
A V.    Em7 V.     D V. F#
Leavin home aint  ea  sy
Bm  F7   A           E7     A      Dm9   A
( On the  one youre leaving home)

Stay my love ..... etc   the same as intro.

The rest is the same, except for the last
but one time the chorus is played:
A V.  Em7 V.    D V. F#  Bm   F7
Leavin home aint ne  ce  ssa  ry
Leave the on ly  way
E|----0-----0---0---0---5--|
B|----2-----3---4---5---7--|
G|----2-----4---5---6---7--|
D|----2-----4---6---7---7--|
A|----0-----0---0---0---5--|
E|-------------------------|

Вверх


Let Me Entertain You

two guitars (both in the middle)
E|----------------------------------------|
B|----------------------------------------|
G|-4---4p0---0-4---4-----0-4---4-*---0-4--|
D|-2---2p0-----2---2p0-----2---2p0-----2--|
A|---------2-----------2p0---------2------|
E|----------------------------------------|

E|------------------------------------|
B|------------------------------------|
G|--4-----0-4---4------(0)-(0)--------|
D|--2p0---0-2---2p0---0-2---2p0-----5-|
A|------2p0---------2p0---------2p0-5-|
E|----------------------------------3-|

guitars turn panned
E|--------------------------------------------------|
B|-----------------------------------3---3-3-3-3----|
G|-4-4---4-4---4-4-------0-4-4---4---0---0-0-0-0-4--|
D|-2-2p0-2-2p0-2-2p0-------2-2p0-2p0-------------2--|
A|--------------------2-----------------------------|
E|--------------------------------------------------|

E|----------------------------------------|
B|----------------------------------------|
G|----4-4---4-4-2-----0-------------------|
D|--0-2-2p0-2-2-0-----0-2p0---------------|
A|------------------2-------2p0-----------|
E|------------------------------3-->>><<--|

riff A:
E|----------------------------------------|
B|-----------------------------------3----|
G0-4-4---4-4---4-----------4-4---4---0----|
D0-2-2p0-2-2p0-2-2p0-------2-2p0-2p0------|
A|---------------------2p0----------------|
E|----------------------------------------|

E|--------------------------------------------------|
B|--------------------------------------------------|
G|------0-4-4---4-4---4-4---------------------------|
D|--------2-2p0-2-2p0-2-2-0-----0-2p0---------------|
A|----------------------------2-------2p0-----------|
E|----------------------------------------3-->>><<--|

riff B:
E|----------------------------------------|
B|----------------------------------------|
G|-0-2p0-2-----0-2p0-2-----0-2p0-2-2p0-5b-|
D|-0-2p0-2---2---2p0-2---2-0-2p0-2-2p0-5b-|
A|----------------------------------------|
E|----------------------------------------|

E|------------------------------------------------------|
B|------------------------------------------------------|
G|-2p0-0-2p0-2-----0-2p0-2-----0-2p0--------------------|
D|-2p0-0-2p0-2---2-0-2p0-2---2-------2p0----------------|
A|---------------------------------------3---->>>>-3--2-|
E|------------------------------------------------------|

riff C:
E|----------------------------------------------|
B|----------------------------------------------|
G|----------------------------------------------|
D|--------0--2-4---5--4--4-----9----------------|
A|-2---3---------------2--2-----7---------------|
E|------------------------------0-------<<<<<<0-|

E|----------------------------------------|
B|-___------------------------------------|
G|-7h9--7--7------------------------------|
D|--------9---8-7-5-7b__9---x-x-----------|
A|--------------------------x-x-9---------|
E|------------------------------7-------x-|

18"
E|----------------------------------|--------------------------|
B|----------------------------------|--------------------------|
G|-<<<-------------------------2----|--------------------------|
D|-<<<-2p0-2p0---0-------------2----|--------------------------|
A|-------------2---2p0-2p0-----0...-|--------------------------|
E|-------------------------3p0------|-5-5-3---3------5-5-3---3-|

E|----|-------------------------------|
B|----|-------------------------------|
G|-0/-|-------------------------------|
D|-/0-|-------------------------------|
A|----|-------------------------------|
E|----|-5-5-0---0---0---0---0---0---0-|

riff A, riff B, riff C, X

E|-----------------------------------------------------------|
B|-___-----------------------------------------------2-4-2---|
G|-7h9--7---7------------------------------4-2-44----2-4-2---|
D|---------9---8-7-5-7b9--b9--b9__7p5------4-2-44----2-4-22--|
A|---------------------------------------..------------------|
E|------------------------------------2...-------2...------2-|

E|---------------------------|
B|---------------------------|
G|---------------------------|
D|---------------------------|
A|---------------------------|
E|-222----222----222-2-22222-|

A    G  F#  B
B|-12h13p12h13phphphph..|

E|        |--------------------------|
B|        |--------------------------|
G|        |-------...0-2-2-0---------|
D|riff A, |riff B -----------2-2-0---|
A|        |------------------------3-|
E|        |--------------------------|

E|---------------------------------------------------------|
B|---------------------------------------------------------|
G|---------------------------------------------------------|
D|--------0--2-4---------0--2-4---------0--2-4-5-4--4------|
A|-2---3----------2---3----------2---3------------2--2-----|
E|-------------------------------------------------------0-|

solo:
E|(0)----------------------------------------------------------|
B|-x17b19----17b19----17b19---17---14--------------------------|
G|------------------------------------16-14----------------14r-|
D|--------------------------------------------16--14-x-(0)-----|
A|-------------------------------------------------------------|
E|-------------------------------------------------------------|

E|----------------------------------------------------------|
B|----------------------------------------------------------|
G|-x4-------------------------14p11-14p11-14p11-14b16-14-16-|
D|-x4-2-----------------------14p11-14p11-14p11-14b16-14-16-|
A|------4-2-0-----------------------------------------------|
E|------------2-2-2-2-0rA/c#A-------------------------------|

E|------------------------|
B|------------------------|
G|-16p14----14------------|
D|-16p14-16-14-16---16p14-|
A|-------16----16---16p14-|
E|------------------------|

Вверх


Let Me Live

Solo
E|----------------------------------------------------|
B|----------------------------------------------------|
G|-------------------12-------------------------------|
D|-12b14-----12b14--------12b14_r12p10-12-------------|
A|------------------------------------------12--(/15)-|
E|----------------------------------------------------|

E|---------------------------------------------15______---15____-|
B|-------------------------13----15----15b17_____---b17_____-b17-|
G|-------------------12___----12----12---------------------------|
D|-------10h12-12/14----14---------------------------------------|
A|-10h12---------------------------------------------------------|
E|---------------------------------------------------------------|

E|----------------x-18b20--------------------------------17-------------------|
B|-b17r__15p13--------------15b17__r15p13-15vv3------17----17-20-17-------18v-|
G|------------14---------------------------------4/18----------------18-------|
D|----------------------------------------------------------------------19----|
A|----------------------------------------------------------------------------|
E|----------------------------------------------------------------------------|

E|---------------------------------------------------13----17----13---|
B|--------------------22__r-20-17vv3-------------13----13----13----13-|
G|-b21__r19----16-19-----------------2/4-15-7/14----------------------|
D|----------17--------------------------------------------------------|
A|--------------------------------------------------------------------|
E|--------------------------------------------------------------------|
________ _______   four gtrs.
E|----------16----20p16----20p16---|-13b15-13b15----|----|e-20b22----20-|
B|-------16----16------16-------16-|-17b19-17b19----|----|B-22b23----22-|
G|-15/17---------------------------|-17b19-17b19----|-0/-|G-22b24----22-|
D|---------------------------------|-12b14-12b14----|-/0-|G-22-------21-|
A|---------------------------------|----------------|----|--------------|
E|---------------------------------|----------------|----|--------------|

Вверх


Liar

E|-------------------------------------------------------------|
B|-------------------------------------------------------------|
G|-2-----2-----2-----2---2-----2-6r4p2-----2-2----2-----2----2-|
D|-2-----------------2-2---------------4-2-2-----------------2-|
A|-0-3b4---3b4---3b4-0-----3b4-------------0--3b4---3-4--3b4-0-|
E|-------------------------------------------------------------|

E|-2----------------------------------------------------3------|
B|---5----------------------2---3------------------------------|
G|--(0)-6r4p2-------------2-2---------2-4-----2-2-2-0-2--------|
D|------------4-2-2-2-2-2---2-2---0h4---------2-2-2-0-2--0-----|
A|----------------0-0-0-0---0-------------3b4-0---0---0----3b4-|
E|-------------------------------------------------------------|

E|-------------------------------------4-----7-----------7-----|
B|-----7h8--7---7h8---5---7h8--7--7h8--5--8--7--8---10-----8---|
G|-----7h9--7---7h9---6---7h9--7--7h9--6-----6-----9---9-----9-|
D|-----7----7---7-----7---7----7--7----7-----------------------|
A|-0-0---------------------------------------------------------|
E|-------------------------------------------------------------|

E|-9-----10-----9-----7--------|
B|---8------8-----8-----8---10-|
G|-----9------9-----9-----9----|
D|-----------------------------|
A|-----------------------------|
E|-----------------------------|

E|-------------------------------------------------------------|
B|-----------------------------------------------------9-7-9-7-|
G|-9---------------------------------------------------9-7-9-7-|
D|-9-----9---7---9-------------------------------------9-7-9-7-|
A|-7-7---7---5---7---5--------5-----7--5--7--5-----5-----------|
E|----0--------------------5-7---0--------------5-7--0---------|

E|-------------------------------------------------------------|
B|-----9---7---9-7---------------------------------9---7---9-7-|
G|-----9---7---9-7--7-------7----------------------9---7---9-7-|
D|-----9---7---9-7------7-9------------------------9---7---9-7-|
A|-------------------------------------------5-----------------|
E|-0-------------------------------------5-7---0---------------|

E|-2-------320---0-|-2-------32--0---|---------3-----0----|
B|-3---3------22--2|-3---3-----3--2--|-----3-----332------|
G|---2---2------2--|------222---2--22|---2---2------2-2..-|
D|-----------------|---0-------------|-0------------------|
A|-----------------|-----------------|--------------------|
E|-----------------|-----------------|--------------------|

Вверх


Lily Of The Valley

C          G7                 Am  (add g bass)
I am forever searching high and low
Am                              Dm
But why does every body tell me no?
(Dm)           G        C      Dm7    G
Neptune of the seas, an answer for me please
C    Dm7    G              Am   Dm   Am  Dm
The lily of the valley doesnt know

(Dm)    A7/C#m   C#dim  Dm
I lie in wait with open  eyes
(Dm)  C7                F
I carry on through stormy skies
(F)          C          C7            C
I follow every course, my kingdom for a horse
F    C/E   Dm  C    G
But each time  I   grow old
C       Dm7    G       C        Dm7   G
Serpent of the Nile, relieve me for a while
C       F         G         Am7       G  C
cast me from your spell and let me go

Messenger from seven seas has flown
To tell the king of Rhye hes lost his throne
Wars will never cease, is there time enough for peace?
The lily of the valley doesnt know

Extro:    Am    G|C
(beats)   / / / / / (hold)

Вверх


Living On My Own

Am
Sometimes I feel I?m gonna break down and cry (so lonely)
Nowhere to go, nothing to do with my time
Gm            Am  Gm        Am  Gm    Em
I get lonely, so lonely, living on my own.
Sometimes I feel I?m always walking too fast (so lonely)
And everything is coming down on me, down on me, I go crazy
Oh so crazy - living on my own.

Cm(VIII)       Bm(VIII)
Dee do de de, dee do de de
H                                      E
I don?t have no time for no monkeybusiness
Dee do de de, dee do de de
I get so lonely, lonely, lonely, lonely, yeah
C                         E
Got to be some good times ahead

Sometimes I feel nobody gives me no warning
Find my head is always up in the clouds in a dreamworld
It?s not easy - living on my own, my own, my own

Dee do de de, dee do de de
I don?t have no time for no monkeybusiness
Dee do de de, dee do de de
I get so lonely, lonely, lonely, lonely, yeah
Got to be some good times ahead.

Вверх


Long Away

A                E         D                     A  E
You might believe in heaven, I would not care to say
A                 E             D                 A
For every star in heaven, theres a sad soul here today
D                        Bm
Wake up in the morning with a good face
E                     A
stare at the moon all day
D                        Bm
Lonely as a whisper on a star chase
E                E7sus4
does anyone care anyway?
A                    E
For all the prayers in heaven
D                   F    A  E  D  E7sus4   A
so much of lifes this way

[Chorus:]
A
Did we leave our way behind us?
(A)
Such a long, long way behind us?
D
Who knows when, now who knows where?
A
Where the light of day might find us?
D7               A
Look for the day.

Take heart, my friend, we love you
though it seems like youre alone
A million lights above you
smile down upon your home
Hurry put your troubles in a suitcase
Come let the new child play
Lonely as a whisper on a star chase
Im leaving here, Im gone away
For all the stars in heaven
D                 F                    A
I would not live, I could not live, this way

A
Did we leave our way behind us?
Such a long, long time behind us?
D
Leave it for some hopeless lane
A
Such a long, long way
Such a long, long way
A7
Such a long, long way
A   D            F                      A
Im looking for, still looking for that day

Вверх


Love Of My Life

intro
E|---10-10-10-10-10-10-10-8-8-8-8-7-7-7-7---5-5-5-5-5-5-5-|
B|---10-10-10-10-10-10-10-8-8-8-8-8-8-8-8---6-6-6-6-6-6-6-|
G|---11-11-11-11-11-11-11-9-9-9-9-7-7-7-7---5-5-5-5-5-5-5-|
D|-0--------------------------------------0---------------|
A|--------------------------------------------------------|
E|--------------------------------------------------------|

E|---7-7-7-7-7-7-7---5-5-5-5-5-5-5------|
B|---8-8-8-8-8-8-8---6-6-6-6-6-6-6------|
G|---7-7-7-7-7-7-7---5-5-5-5-5-5-5------|
D|-0---------------0---------------<12>-|
A|--------------------------------------|
E|--------------------------------------|

D            Bm            Em              A
E|-----2------|------2------|---------------|------------0--|
B|3-2-3----3--|3-2-3-----3--|8---------8----|2---3---5--2---|
G|-------2----|------------4|9---9---9---7-9|2--------------|
D|0-----------|--------4----|---------------|--2-4-2-5------|
A|-----------4|2------------|7-7---7--------|0---------0---0|
E|------------|-------------|---------------|---------------|

D                 Bm                  G       D
E|------------5----|--7----------------|-7-------5-------|
B|-------7---------|---------7-7-------|---3-5-3---3-5-3-|
G|-7-6-7---7-7-----|--7----7-----7-----|-----------------|

Вверх


Made In Heaven

Gm-Eb/G-Gm Gm-Eb/G
Gm-Eb/G-Gm Gm-Eb-F

Bb
I'm taking my ride with destiny,
Dm            Gm   (F)
Willing to play my part,
Bb            (Bb7)
Living with painful memories,
Eb/G
loving with all my heart,

Db         Ab
Made in heaven, made in heaven,
Fm/C     Bb/Db        Eb
It was all    meant   to   be,

Db         Bb7
Made in heaven, made in heaven

Ab             Cm/G         Fm(7)
Thats what they say,  can't you see
Bbm       Bbm/A
Thats what everybody says to me,
Dbm/Ab       Eb
Can't   you  see
Ab        Cm/G               Fm(7)
I know, I know, I know that its true
Bb7
Yes, its really meant to be,
Dbm/Ab        Ab
Deep in my heart,

Gm-Eb/G-Gm      Gm-Eb/G
Gm-Eb/G-Gm      Gm-Eb-F

I'm having to learn to pay the price,
They're turning me upside down,
Waiting for possibilities,
Don't see too many around,
Made in heaven, made in heaven,
It's for all to see,
Made in heaven, made in heaven,
Thats what everybody says, everybody says to me,
It was really meant to be,
Can't you see,
Everybody, everybody, says,
Yes it was meant to be, yeah yeah,

Db       Bbm
When stormy weather comes around,
Ab
It was made in heaven,
Db            Bb7
When sunny skies break through behind the clouds,
Ab     Cm/G      Fm
I wish it could last forever,
Bbm      Bb
Wish it could last forever, forever,

SOLO: E B E/Ab Db Gb
E Db B Gb
Db Ab F/A-Bb

I'm playing my role in history
Looking to find my goal,
Taking in all this misery,
But giving it all my soul,
Made in heaven, made in heaven,
It was all meant to be,
Made in heaven, made in heaven,
Thats what everybody says, wait and see,
It was really meant to be,
So plain to see,
Yeah everybody, everybody, everybody tells me so,
Bb7
Yes it was plain to see,
(Bbm7)                Dbm/Ab
Yes it was meant to be,
Abm Abm-E/Ab-Abm Abm-E
Written in the stars
Abm     Abm-E/Ab-Abm    Abm-E
Written in the stars
Abm Abm-E/Ab-Abm Abm-E
Written in the stars

Вверх


Modern Times
RockNRoll

guitar solo
E|----------------15-15-------15-15-------15-15----------------|
B|-18b20----18b20-------18b20-------18b20-------18b20-18-18-15-|
G|-------------------------------------------------------------|
D|-------------------------------------------------------------|
A|-------------------------------------------------------------|
E|-------------------------------------------------------------|

E|-18p15----17p15----18p15----15-15-15-------15-15-------|
B|-------15-------15-------15----------18b20-------18b20-|
G|-------------------------------------------------------|
D|-------------------------------------------------------|
A|-------------------------------------------------------|
E|-------------------------------------------------------|

E|-15-15------15-15-------15-15-|
B|------18b20-------18b20-------|
G|------------------------------|
D|------------------------------|
A|------------------------------|
E|------------------------------|

E|---------------------------------------------------|
B|-18-15----15----------18b20---b19b20---18-16-------|
G|-------18----18-17-15------------------------17-15-|
D|---------------------------------------------------|
A|---------------------------------------------------|
E|---------------------------------------------------|

E|---------------------------|
B|---------------------------|
G|---------------------------|
D|-17-16-15-13----15-13------|
A|-------------15-------15__-|
E|---------------------------|

E|-------------------------------------------------|
B|---------------------------------------18-20b22--|
G|----------------------17-19p17---17-19-----------|
D|---------15----15-/19---------19-----------------|
A|__9_/17----17------------------------------------|
E|-------------------------------------------------|

E|--------20b22vv------|
B|--20-18--------------|
G|---------------------|
D|----------------0r//-|
A|---------------------|
E|---------------------|

Вверх


More Of That Jazz

riff 1
E|-----0------0--------------------|
B|-------3---3--3------1------1----|
G|---1------1--------3---3---3--3--|
D|-2-------2-------2--------2----2-|
A|---------------3---------3-------|
E|---------------------------------|

riff 2
E|-----------------|
B|---------------5-|
G|---------------5-|
D|---------------5-|
A|---------------3-|
E|-0--0--0-0-------|

riff 3
E|---------------------------|
B|---------------------------|
G|---------------------------|
D|---------------------------|
A|---------------------------|
E|-12-0-11-0-10-0-9-0-0-7-8v-|

riff 4
E|-----------------------------------------|
B|-----------------------------------------|
G|-----------------------------------------|
D|-----------------------------------------|
A|-----------------------------------------|
E|-0---12-0-0-11-0-0-10-0-0-9-0-0-10-0-0---|

E|--------------------------------|
B|--------------------------------|
G|--------------------------------|
D|--------------------------------|
A|--------------------------------|
E|-6-0-0-7-0-0-8-0-0-9-0-0-10-0-0-|

E|--------------------------------------|
B|--------------------------------------|
G|--------------------------------------|
D|--------------------------------------|
A|--------------------------------------|
E|-10-0-0-12-0-0-14-0-0-15-0-0-17-0-0---|

E|------------------------------------|
B|------------------------------------|
G|------------------------------------|
D|------------------------------------|
A|------------------------------------|
E|-15-0-0-14-0-0-12-0-0-10-0-0-12-0-0-|

E G# D# G
E A C G6

Вверх


Mother Love

Intro:

Gm
e|-----------------|       |-------------------|------------------|
B|-----------------|     / |-------------------|------------------|
G|-----------------|  O /  |-------------------|---------5--------|
D|---8---7---7--5-|   /   |---8---7----7----5-|-8-5---7---7------|
A|/5---5-----------|  /  O |/5---5-------------|-----5-------8/10-|
E|---------8---8---| /     |-------------------|------------------|


Eb   Cm    Gm~

Verse:

Gm
I dont want to sleep with you...

Eb
All I want is the comfort and care

Cm					    Gm
just to know that my woman gives me sweet - Mother Love


Chorus:

Eb			     Cm	  	   F			  Bb
Ive walked too long in this lonely lane. Ive Had enough of this same
old


Dm			      Gm	      C
game. Im a man of the world and they say Im strong. But my heart is heavy,


D
and my hope is gone.


Eb		 Cm			    Ebm		       ?
Out in the city, in the cold world outside. I dont want pity, just a
safe


D
place to hide. Mama please, let me back inside.


Riff:

Gm
e|--------------------------------------|
B|--------------------------------------|
G|--------------------------------------|
D|---8---7----7----5----8----7----7----5|
A|-5---5--------------------------------|
E|----------8-------------------8-------|


Verse:
Same chords as before.

Solo

Verse:
Same chords as before.

-----------------------------------------------------------------------------
Thats it. Now for the Chords:

Gm	    Eb	   Cm     F      Bb       Dm       C       D      Ebm

e|--3-------6------3------1------1--------5--------3-------5------6----|
B|--3-------8------4------1------3--------6--------5-------7------7----|
G|--3-------8------5------2------3--------7--------5-------7------8----|
D|--5-------8------5------3------3--------7--------5-------7------8----|
A|--5-------6------3------3------1--------5--------3-------5------6----|
E|--3-------6------3------1------1--------5--------3-------5------6----|

Вверх


Mustapha

two short solos
E|-------------------------------|
B|-------------------------------|
G|-------------------------------|
D|-----------9-10-12-13-15p13----|
A|-7-8-10-11-----------------14--|
E|-------------------------------|

E|-------------------------------------------------|
B|---------13-14-13-16r14-13-----------------------|
G|11-13-14------------------14-13h14p13p11h13p11---|
D|----------------------------------------------12-|
A|-------------------------------------------------|
E|-------------------------------------------------|

Вверх


My Baby Does Me

|----------8-11-10-----------|---------11-10-8---------|
|-------11---------8-11b13v--|-------8---------11------|
|-10b12----------------------|-10b12--------------10v--|
|----------------------------|-------------------------|
|----------------------------|-------------------------|
|----------------------------|-------------------------|

|------8--------------10---------|---8---11b13vvr/13b15-|
|----8---8-11b13vvrp8----11------|-8---8----------------|
|-10------------------------10v--|----------------------|
|--------------------------------|----------------------|
|--------------------------------|----------------------|
|--------------------------------|----------------------|

Вверх


My Melancholy Blues

E B C#m                       G#m
Another partys over   And Im left cold sober


-----------------------------------4--
-4-5-4-5---------4-5-4-5-------6---6--
-3---------------2-------------4---7--
-5---------------4-------------6---6--
--------------------------------------
-3---------------2-------------4------
My baby left me  for somebody  new


244225                         x0x555  e---4--5--4--2--
I dont want to talk about it, want to forget about it



4xx100           3xx000     2xx200     x2x200
wanna be intoxicated with that special brew

-------------0--0--0--40---4------4----
-------------0--0--0-0--0--4------4-7--
-------------1--1--1-----5-5------5-5--
-------------------------6----------6--
-------------------------6-------------
-------------0-----0-----4-------4-4---
So come and get me       let me

---22-020--0-----------------------0----
---22--1-1--------------------5-----2---
---22--2----------------------46-4---30-
------------------------------6---------
-0-----0--------------------------------
----------------------------4------3----                2xx220      x0x212
get in that sinking feeling that says my heart is on an all-time low

E               G#         G#7
So dont expect me t behave perfectly

A             Am             E           Gdim                    A/F#
And wear that sunny smile   my guess is Im in for a cloudy and overcast

-0----0--------------------------------------7-5-----------
-2--4---4-2------------------------4-5-6-7-9---2--2--2--2--
-3-----------------------------4-6-----6-------2--2--2--2--
-------------------------------6-------6----------4--3--2--
---------------------------------------8-------------------
-3-----------------------------4---------------2-----------
Dont try and stop me cos Im heading for that stormy weather soon

A                             Am
Im causing a mild sensation  with this new occupation

466474          x46654   G#7                C#m
Im permenantly glued to this extraordinary mood.

244252             Gdim                 A/F# Gdim x0x213 x2x442 E
So now move over let me take over    with my  melancholy blues


solo
-7-97-9797--7-97-9---9---------0-20-2020---------020--
-9-----7----7---------129------2-----1----5-75-7-2----
-------------------10----10----2-----2----4------3----
------------0--------------11-------------6-----------
-7------6----------------------0-----0----------------
-------------------9----------------------4------3----  A/F# Gdim

---------------7-5-----------
-----4-5-6-7-9---2--2--2--2--
-4-6-----6-------2--2--2--2--
-6-------6----------4--3--2--
---------8-------------------
-4---------------2-----------

A                             Am
Im causing a mild sensation  with this new occupation

466474     x46654   G#7                       C#m
Im in the news     just getting used to this exposure

244252          Gdim                 A/F# Gdim x0x213 x2x442 E
So come into my enclosure     and meet my  melancholy blues

Вверх


Need Your Loving
Tonight

E|---------------------------------------|-----------|
B|--------------------------------5------|------5----|
G|--------------------------------4------|-0/---4----|
D|---/9999-6-6--4----2-/9999-6-6--4------|-/0---4----|
A|---/7777-4-4--2----2-/7777-4-4-22------|----..2----|
E|-*-----------4--3b-0--------------3b-0-|--------4b-|

A B A B E A B

E|-------------------|
B|-------------------|
G|-------------------|
D|---/9999-6-6--4----|
A|-2-/7777-4-4--2----|
E|-0-----------4--3b-|

E|---------------------------------------|
B|---------------------------------------|
G|---------------------------------------|
D|---/9999-6-6--4----2-/9999-6-6--2------|
A|---/7777-4-4--2----2-/7777-4-4-22------|
E|-*-----------4--3b-0--------------3b-0-|

A B A B E A B

E|------------------------------|
B|-------------------2----------|
G|-------------------2----------|
D|---/9999-6-6--2----2-----2----|
A|-2-/7777-4-4--2----0-----20---|
E|-0-----------4--3b---------30-|

E|----------------------------------|----|
B|-5-5-55-55555-555-----------------|----|
G|-5-5-55-55555-555-----------------|-0/-|
D|-5-5-55-55555-555-----------------|-/0-|
A|-3-3-33-33333-333-----------------|----|
E|-----------------0-3-20-033203040-|----|
D(sus4) F# A B...
...

138:
E A B   E A B E A B G# C# A B
E(VII) C# E C# E C# A B A B
E A B

E|-------------------|
B|-------------------|
G|-------------------|
D|---/9999-6-6--4----|
A|-2-/7777-4-4--2----|
E|-0-----------4--3b-|
....

solo:
E|---------------------------------------------|
B|---------------------------------------------|
G|-11b13-b13-b13-b13-b13---b13rp9-11--9--8119v-|
D|---------------------------------------------|
A|---------------------------------------------|
E|---------------------------------------------|

E|-----------------------------------------------|
B|---------------------------------_____---------|
G|-b13-11b13-b12-b13-b12-b13---b13_r11p911-9-8-9-|
D|-----------------------------------------------|
A|-----------------------------------------------|
E|-----------------------------------------------|

E|------------------------------------_____-----------|
B|----------------------------_____---12b14---14r12---|
G|-b13-11b13---b13-b13-b13v---13r11-9---------------9-|
D|----------------------------------------------------|
A|----------------------------------------------------|
E|----------------------------------------------------|

three gtrs. arr. for one
E|-----------------------------------------|
B|-b14--13-b14-13-b14----b16-15-b16-15-b16-|
G|-----------------------------------------|
D|-----------------------------------------|
A|-----------------------------------------|
E|-----------------------------------------|

E|-b19-18-b19-18-b19----b20-18-b20r18-b20----b20-|
B|-b18-17-b18-17-b18----b20-18-b20r18-b20----b21-|
G|-b14-13-b14-13-b14----b16-15-b16r15-b16----b17-|
D|-----------------------------------------------|
A|-----------------------------------------------|
E|-----------------------------------------------|

Вверх


Nothin But Blue

Bass:

A|-4--5-----2-4-5-|
E|-------4-5------|

Intro solo:

E|-12-12-12-12-12-12--12-10------------------|
B|-------------------------------------12-10-|
G|-------------------------------------------|

E|-------------12-10----------------------------------------------10-|
B|-10-12-13-------12-10----------------------------10-12-13-13-12-10-|
G|----------14----------12-14-12-14-11-12-14-11-10-------------------|

Bm			Am
I look at your picture	Im nothin but blue
Im hearing you whisper	The way you used to do

And I [Em] cant stop [D] wondering
[G] just how things might have [Am] been.

No, [F] Im nothin but [G] blue (for the G, try using the regular fingered
F slid up two frets)

My life has no rhythm, somehow its outta tune
I keep trying to tell them well be seeing them soon
But the truth keeps rushing back, guess you know what I mean
No Im nothing but nothing but blue

[C#m] No use in [D] crying [G#5] That aint what you would [A5] do [B5] no!

[C#m] living or [D] dying well just [F7] keep on fighting through [F7/A.
A] yeah!

Solo
Bm
E|---------------------------|
B|---10-12-12---12-10--12-12-|
G|-11---------------------11-|

Am
E|--------------------10-|
B|-----1212-12-13---12---|
G|-----------------------|

Bm
E|-----------------------------------------------12-|
B|----------------------12-14-15p14h15--------------|
G|--------------11-14-------------------------------|
D|---11-12-14---------------------------------------|
A|--14----------------------------------------------|

Am
E|-12--12-10-------------------------------------------|
B|-------------13-12-12/13/12--------------------------|
G|--------------------------------------14p12h14p12h14-|

E|---19--19----------19----------19-----------19---------|
B|-18--18-18-17-18-18-17-18--18-17-18--18-17-18-18-17-18-|
G|-------------------------------------------------------|

E|---19----------19----------19-----------19-|
B|-18-17-18--18-17-18--18-17-18--------------|
G|-------------------------------------------|

[Em} no I cant stop my [D] wondering
[G] About all those things that [Am] might have been
No, Im nothing but blue, no, Im nothing but blue
Dmaj7   Dm7  Dmaj7 Dm7  Dmaj7 Dm7 Dmaj7
(strum the bottom 4 strings for these)
Nothing but blue...

Dmaj7: X X 0 2 1 1
Dm7  : X X 0 2 2 2

Вверх


Now Im Here

The muted bit is D as follows...

E|-----------------------------------|
B|-3-3-3-3...3---------------------3-|
G|-2-2-2-2...2-2...2-2...2-2...2-2-2-|
D|-0-0-0-0...0-0...0-0...0-0...0-0-0-|
A|-------------3...3-2...2-1...1-3---|
E|-----------------------------------|

Then..

E|-------------------------------|
B|-2---3---2---3---4---5---4---5-|
G|-2---2---2---2---4---4---4---4-|
D|-2---2---2---2---4---4---4---4-|
A|-0---0---0---0---2---2---2---2-|
E|-------------------------------|
Im just a...

Then the main riff.

E|--------------------------------------|
B|------------------------3-3-----------|
G|------------------------2-2-2---------|
D|---------2---4--2-----------2--4-4----|
A|-------------2--0--------------2-2-4--|
E|-0---3-4---0------3-4-0------------2--|

E|------------------------------------|
B|--------------9-9---9-9---9-----7-5-|
G|--------------9-9---9-9---9-----7-6-|
D|-------0-2----9-9---9-9---9-----7-7-|
A|-0-1-2--------7-7---7-7---7---------|
E|-----------0------0-----0---0-0-----|

Вверх


Ogre Battle

played backwards
E|---------------------------------------------------|
B|---------------------------------------------------|
G|---2---2---2---2-----------------------------------|
D|---2---2---2---2---2-3-5-5-0-2-3-3-----------------|
A|-*-0---0---0---0-------------------2-3-5-5-0-2-3-3-|
E|---------------------------------------------------|

E|---------|--|---------|--|-----------------------------|--|--|
B|---------|--|---------|--|-----------------------------|--|--|
G|---------|0/|---------|0/|-----------------------------|0/|--|
D|---------|/0|---------|/0|---2---2-2---2-2---2-2---2-2-|/0|--|
A|---------|--|---------|--|---0---0-0---0-0---0-0---0-0-|--|--|
E|-0-3-5-5-|3X|-0-2-3-3-|3X|-0---3-----3-----3-----3-----|--|0-|

backwars off
E|-----------------------------|---|---------|---|---------|---|
B|-----------------------------|---|---------|---|---------|---|
G|-----------------------------|0/-|---------|0/-|---------|0/-|
D|-2-2---2-2---2-2---2-2---2---|/0-|---------|/0-|---------|/0-|
A|-0-0---0-0---0-0---0-0---0---|---|---------|---|---------|---|
E|-----3-----3-----3-----3---0-|---|-3-3-2-0-|3X |-5-5-3-0-|3X |

E|-------------------------------------------------2-|
B|-------------------------------------------------3-|
G|---------------------------------2---2---2---2---2-|
D|-----------------3-3-2-0-5-5-3-2-2---2---2---2---0-|
A|-3-3-2-0-5-5-3-2-----------------0---0---0---0-----|
E|---------------------------------------------------|

E|-------------------------------------|----------------|-----|
B|-------------------------------------|----------------|-----|
G|-------------------------------------|----------------|-----|
D|-5-------------------------------2---|-----5-------2--|-----|
A|-5----5----------9---------------2---|-----5-------2--|-----|
E|-3----2v---x-x-0-7---*-x-x---x-x-0---|-x-x-3-----x-0--| C D-|

E|------------------------2-------------------|
B|----------3-------------3-------------------|
G|----------2-------------2-----7-------------|
D|-5------------------4---------7-----5-------|
A|-5------------0-0-2---------5-5-----5-------|
E|-3----2v----------------------------3-----0-|

E|-----------------2-|-------------------|----|
B|-----------------3-|-------------------|----|
G|-----------------2-|-------------------|-0/-|
D|-5---------------0-|---------------5h7-|-/0-|
A|---3-2-0-------0---|-3-2-0-3p0-5p0-----|----|
E|---------3-2-0-----|-------------------|----|

E|--------------------------------------2-|
B|--------------------------------------3-|
G|--------------------------------------2-|
D|---------------5h7---5----------------0-|
A|-3-2-0-3p0-5p0-----------7---5--3--2----|
E|----------------------------------------|

E|-----------------------------------|
B|-----------------------------------|
G|-----------------------------------|
D|-5---------------------------------|
A|-5----5-----------9----------------|
E|-3----2---x-x-x-x-7---x---x-x-0tr--| G E C D

....

E|--------------------|----|-----------------------------------|
B|--------------------|----|-----------------------------------|
G|-2---22---22---22---|-0/-|-2---22---22---22-204----4----4...-|
D|-2---22---22---22---|-/0-|-2---22---22---22---4----4----4----|
A|-0---00---00---00---|----|-0---00---00---00---2---------2----|
E|-----------------420| 2X |--------------------------0200-----|

Вверх


One Vision

(Song is in D)

Intro:
------

E--2-2--2-2-2--2-3-3--3-3-3--3-5-5--5-5-5--5-3-3--3-0-0--0
B--3-3--3-3-3--3-3-3--3-3-3--3-3-3--3-3-3--3-3-3--3-3-3--3
G--2-2--2-2-2--2-4-4--4-4-4--4-5-5--5-5-5--5-4-4--4-0-0--0
D--0-0--0-0-0--0-0-0--0-0-0--0-0-0--0-0-0--0-0-0--0-0-0--0
A
E


Repeat this line once, then :

E--10-10--10-10-10--10-12-12--12-12-12--12-13------12-----
B--11-11--11-11-11--11-13-13--13-13-13--13-15------15-----
G--10-10--10-10-10--10-12-12--12-12-12--12-15------15-----
D--0--0---
A--
E--


Then the main guitar riff starts :

sl=slide down (as the chord dies)

E--
B--7-sl----5--7-7-sl----3--5-5-sl----3--5-5---5--7--5-
G--7-sl----6--7-7-sl----4--5-5-sl----4--5-5---6--7--6-
D--7-sl----7--7-7-sl----5--5-5-sl----5--5-5---7--7--7-
A--5-sl----4--5-5-sl----2--3-3-sl----2--3-3---4--5--4-
E--

This repeats quite a few times

That second shape is a bit awkward when you first see it

I finger it like this :

EADGBE

------
1            1=first finger
------             :
2              :
------        4=little finger or pinky if you like
3
------
4
------  7th fret


You have to be careful to mute or not strike the top and
bottom Es too!

I mute the top one using my first finger


The rest of the chords are easier youll be glad to know

It goes :


A               D/A
One flesh one bone one true religion

A               D/A
One voice one hope one real decision

C         Csus4      C
wo-oo-oo-oo-oo-oo   give me one vision

A5  Bb5 B5 C5 C#5

then back to the riff

Chord shapes :

EADGBE    EADGBE   EADGBE   EADGBE    EADGBE   EADGBE
x0222x    x0423x   x3555x   x3556x    x022xx   x133xx

A         D/A      C        Csus4     A5       Bb5


..and so on for B5, C5 - just move it up fret by fret


The intro chords come in again over the middle 8 : I

had a dream , when I was young ..  etc


After that its just repeats of the different sections

Hope you like it!

Вверх


Party

E|-10p9p7-9p7----7---------7------|
B|------------10---10p7-10---10p7-|
G|--------------------------------|
D|--------------------------------|
A|--------------------------------|
E|--------------------------------|

E|-------------------------------------|
B|-------------------------------------|
G|--------11-12r11p9-11p9----9----9----|
D|-----13-----------------11---11---11-|
A|-/14---------------------------------|
E|-------------------------------------|

Вверх


Play The Game

C                           Bb  Bbmaj7
Open up your mind and let me step inside
Am                                 Fm
Rest your weary head and let your heart decide
C   Am7 Dm              G7
It?s so easy when you know the rules
C  Am7 F            Fm
It?s so easy all you have to do
C
Is fall in love
G
Play the game,
C                   Gm9       Ab   BЬ
Everybody play the game of love
С CB CB Am7 Ab G Ab F Bb

When you?re feeling down and your resistence is low
Light another cigarette and let yourself go
This is your life
Don?t play hard to get
It?s a free world
All you have to do is fall in love
Play the game, everybody play the game of love

F         Bb               F
My game of love has just begun
Dm7             G
Love runs from my head down to my toes
C                  Em
My love is pumping through my veins
C                    Em
Driving me insane
C     D            Em         C             Gm7        Ab  BЬ
Come come come play the game play the game play the game
С   Am7    Dm                G7
This is your life - don?t play hard to get
C     CBb F          Fm                  C
It?s a free world all you have to do is fall in love
G        C            Gm9        Ab     BЬ
Play the game everybody play the game of love

Вверх


Procession

Channel 1
E|---5-6-6-|
B|-3-7-8-8-|
G|-3-7-7-7-|
D|---------|
A|---------|
E|---------|

E|-3-5-6-5-6-5-3---3-------5---1---1---1---1---3-0-1-0---------|
B|-5-----6-6---6-5-3-------7---3-2-3---3-2-3---3-1-1---3---1-3-|
G|-5-----5-7---5---5-3-----7---2---2---3-2-3---4-0-2---5-4-2-0-|
D|---------------------7-5-----------------------------5-3-2-0-|
A|-------------------------------------------------------------|
E|-------------------------------------------------------------|

Channel 2        fade in/fade out volume control
E|-------------------------------------------------------------|
B|-------------------------------------------------------------|
G|-------------------------------------------------------------|
D|-------------------------0---------0-------------------------|
A|---------------------------0---------1-------2-3---------0---|
D|-----------------------------0-------------------3---5-----5-|

Channel 2
E|--8-10-10-10-----|-12-----13----15-15---|-12-14-15-15-|
B|-8-8-10-12-12----|-15-13--15----17-17---|-13-15-17-17-|
G|-7-9-11-12-12----|-12-----17-16-17-17---|-14-16-17-17-|
D|-----------------|----------------------|-------------|
A|-----------------|----------------------|-------------|
E|-----------------|----------------------|-------------|

Channel 1       fade in/fade out volume control
E|----------|---------------------|-3------------------|-0-----|
B|----------|-3-3-3-1-------------|-3-5-3-1------------|-3-1-1-|
G|----------|-2-4-0-0-------------|-4-5-4-2------------|-4-2-2-|
D|----------|-4-5-3-2-------------|-5-5-5-2------------|---2-2-|
A|----------|-5-5-5-3-------------|---3-2-0------------|---0-0-|
D|----------|---------------------|--------------------|-2-----|

Channel 2
E|-2-14-15-15-17-19-19-20-22-22--|
B|-13-15-17-17-19-20-20-22-24-22-|
G|-12-14-16-17-19-21-19-21-23-23-|
D|-------------------------------|
A|-------------------------------|
E|-------------------------------|

Channel 1         fade in/fade out volume control
E|-------------------------------|
B|-------------------------------|
G|-------------------12-12-12-11-|
D|-------------------12-12-12-12-|
A|-0-----------------14-10-10-12-|
D|-----------2--------5--------0-|

Вверх


Rain Must Fall

E|-------------------------------------|
B|..-----22---22-----------22---22-----|
G|--21b23--b23--b23--r21b23--b23--b23--|
D|-------------------------------------|
A|-------------------------------------|
E|-------------------------------------|

E|----------------------------------------|
B|--------22p19-----22p19-----22---22-----|
G|-r21-b23-----21b23-----21b23--b23--b23--|
D|----------------------------------------|
A|----------------------------------------|
E|----------------------------------------|

E|-22b23---22-20-18----------------------------------|
B|------------------21-20-18-------------------------|
G|---------------------------20-19-17----------------|
D|------------------------------------20-18-17-------|
A|---------------------------------------------20-18-|
E|---------------------------------------------------|

E|----------------------------------|
B|-/15--t20p17--t20b22p19r_17-17__--|
G|----------------------------------|
D|----------------------------------|
A|----------------------------------|
E|----------------------------------|

E|--------------------------------------|
B|-----15--t20p17--t20b22p19r_17t20p17v-|
G|-16-----------------------------------|
D|--------------------------------------|
A|--------------------------------------|
E|--------------------------------------|

E|---------------|
B|-15-17b19_t20p-|
G|---------------|
D|---------------|
A|---------------|
E|---------------|

E|--------------------------------------------------|
B|-(b19)_t20__p19r17b19_r17p1517b19_t22-pb19_r17p15-|
G|--------------------------------------------------|
D|--------------------------------------------------|
A|--------------------------------------------------|
E|--------------------------------------------------|

E|----------------------------------|-------------|
B|-17b19t20---17b19t22---17b19t20---|-17b19__t20--|
G|----------------------------------|-------------|
D|----------------------------------|-------------|
A|----------------------------------|-------------|
E|----------------------------------|-------------|

E|------------------------------------------------------|
B|-17b19t20p(b19)t20p(b19)t20p(b19)t20p(b19)t20p(b19)t20|
G|------------------------------------------------------|
D|------------------------------------------------------|
A|------------------------------------------------------|
E|------------------------------------------------------|

E|-1417-------------------------------------------------|
B|-----t20p17t20p16t20p15t20p16t20p17t20p(b19)t20......-|
G|------------------------------------------------------|
D|------------------------------------------------------|
A|------------------------------------------------------|
E|------------------------------------------------------|

Вверх


Rock It

B			E
When I hear, that rock and roll
F#
It gets down to my soul,
B			F#
When its real rock and roll, oh rock and roll

(Repeat)

(Power chord section)

B

B
Oh Oh...	Oh Oh...
F#
You really think they like to rock in space?
Well I dont know.
B
What do you know? What do you hear?
F#
On the radio. Coming through the air.
B			  F#
I said Mama, I aint crazy, Im all right... all right...
C#
Hey cmon baby said its all right,
to rock and roll on a Saturday night,
F#
I said shoot and get your suit and come along with me,
E							    B
Said come baby down, come and rock with me, I said yeah...
B
What do you do, to get to feel alive,
F#
You go downtown, and get some of that prime jive,
B			  F#
I said Mama, I aint crazy, Im all right... all right...
C#
Hey cmon baby said its all right,
to rock and roll on a Saturday night,
F#
I said shoot and get your suit and come along with me,
E					B
Said come baby down, come and rock with me, I said yeah...
Were gonna rock it...

(solo)
C#
Hey cmon baby said its all right,
to rock and roll on a Saturday night,
F#
I said shoot and get your suit and come along with me,
E							    B
Said come baby down, come and rock with me, I said yeah...
Were gonna rock it... Tonight
F#
(We want some prime jive) Oh oh oh
B
(We want some prime jive) Oh oh oh oh oh rock it tonight...

and it is F# -> B ad infinitum (or at least, until the end)

guitar solo:

232"
E|---------------------------------------------(2)--------|
B|--------------------------------------------------------|
G|------------------------------------------2b---4---5bb7-|
D|----------------------------------2---4-----------------|
A|--------------------2---3---3h4-------------------------|
E|-D-4----4---4---0---------------------------------------|

E|------------------------------------------------|
B|-2-52-2--52-25-52-252525b7vvr5252---------------|
G|-----5-0---5-----5---------------54242----------|
D|--------------------------------------42--------|
A|----------------------------------------40-3p02-|
E|------------------------------------------------|

E|------------------|
B|------------------|
G|-2b4-2------4-4-2-|
D|-------4p2--4-4-2-|
A|----------4-------|
E|------------------|

Вверх


Sail Away Sweet Sister

bass-tab.                    THE GAME
G|-14h16-|-14h16-----|-16---------|-16h18---|-16----|----------|
D|-------|--------16-|------------|------16-|----14-|-17-16----|
A|-------|-----------|------------|---------|-------|-------14-|
E|-------|-----------|------------|---------|-------|----------|

G|------------|------------|-----------|-----------|
D|------------|------------|-----------|-----------|
A|-14---------|------------|-14--------|-----14--4-|
E|------------|------------|-----------|-----------|

G|------------|------------|------------|----------|
D|------------|------------|------------|----------|
A|-5----------|------------|------------|----------|
E|-------2-2--|-3-----4-4--|-5----55-5--|-5----55--|

G|-----------|------------|------------|-----------|
D|-----------|------------|------------|---------4-|
A|-5-5-789-9-|------------|------------|------5----|
E|-----------|-3-----4-4--|-5----55-5--|-5---------|

G|--16-16-16-16|--16-161819--|---16--------|-------------|
D|-------------|-----------16|-16----14-14-|-17--16------|
A|-------------|-------------|-------------|---------14--|
E|-------------|-------------|-------------|-------------|

G|---16-16-16-16-16-161819---|-----16------|-------------|
D|-------------|----------16|----16--1414|-5--4----------|
A|14-----------|-------------|-14----------|-------2--4--|
E|-------------|-------------|-------------|-------------|

G|-----2------|------------|------------|------------|
D|-0----0-----|------------|------------|------------|
A|------------|------------|------------|------------|
E|-------2-2--|-3-----4-4--|-5---55--5--|-5----55--55|

G|------------|------------|------------|--------19-|
D|------------|------------|------7-----|-----------|
A|-5-5--------|------------|------------|------5----|
E|-------2-2--|-3-----4-4--|-5---5----5-|-5---------|

G|-7--9--7/9/11--12--13--14-15-16--17--19-16-----|
D|-----------------------------------------------|
A|-------------------------------------------173-|
E|-----------------------------------------------|

G|------------|------------|------------|------------|
D|------------|------------|------------|------------|
A|-5----------|------------|------------|------------|
E|-----012-2--|-3----34-4--|-5----55-5--|05-5--55--55|

G|------------|------------|------------|------------------|
D|------------|------------|------------|------------------|
A|-5----------|------------|------------|-------5-----2--0-|
E|-------2-2--|-3-----4-4--|-5-----5-5--|-5--------2-------|

G|-----------|------------|------------|------------|
D|-----------|------------|------------|------------|
A|-5---789-9-|------------|------------|------------|
E|-----------|-3-----4-4--|-5-----5-5--|-5----5-5-55|

G|-----------|------------|------------|------|
D|-----------|------------|------------|------|
A|-5---789-9-|------------|------------|------|
E|-----------|-3-----4-4--|-5-----5-5--|-5----|

G|------------|---------|-16----18h19|18------18--|16------16--|
D|-16----16/18|18-------|------------|------16--16|------16--16|
A|------------|---------|------------|------------|------------|
E|------------|---------|------------|------------|------------|

G|-18----18/19|-19---------|-----7------|-------4--4-|-2-------|
D|------------|-------16/17--16-----9-4|------4--4-4|------2---|
A|------------|------------|------------|-2----------|---------|
E|------------|------------|------------|------------|---------|

gradual fade out
G|------------|------------|------------|------------|------76-|
D|------------|------------|-----4h5---4|-----------7|-9------9|
A|-2----------|-2---4-5--4-|-2----------|-2--------9-|---------|
E|---------2/3|------------|------------|------------|---------|

G|----------------------|
D|-7--7-7h9-7-----------|
A|---9--------9-7-5-4-2-|
E|----------------------|

Вверх


Sail Away Sweet Sister
(2 вариант)

piano plays something like this:
E-|-7---7---7---7---7---7---7---7---7---7---7---7---7---7---5---5---7---7-----|
B-|-7---7---7---7---7---7---7---7---7---7---7---7---7---7---7---7---8---8-----|
G-|-7---7---7---7---7---7---7---7---7---7---7---7---7---7---6---6---7---7-----|
D-|---9---9---9---9---9---9---9---9---9---9---9---9---9---9---4---4---9---9---|
A-|---------------------------------------------------------------------------|
E-|-----------------------------------------------------------------7---------|


E-|------------------7---7-------|
B-|-10-9-----3---2---7---7-------|
G-|--9-9-----4---2---7---7-------|
D-|-11-9-----5---4-----9---9-...-|
A-|------------------------------|
E-|-0--0-------------7-----------|

clean guitar:
E-|-------------------------2---------------|
B-|-------------------------2---------------|
G-|-4---4---4---4---4---4---2--4--4....-----|
D-|-------------------------4---------------|
A-|-----------------------------------------|
E-|-----------------------------------------|


overdriven guitar:
(two guitars arr. for one.)
E-|-------------------2--------------------------------------2----------------|
B-|-------3---2---3---3---------3--------3---------5---------3----3--3---3-0--|
G-|-------4---2---2---2----------2-------4----------4----2---2----2--2---4-0--|
D-|-------4---4---0---0---4-4-----4----5---5-6-6-----6---0--------0--0--------|
A-|-------2---0-----------5-5--------5-------7-7---------0--------0--0--------|
E-|-3--2------------------2-2--------3-------4-4------------------------------|


E-|-----0--------------------------2--------------------------------2---3-2---|
B-|-----2---2-3-3-2-3---2--------3-3--------3--------3-----------3--3---3-3---|
G-|-2---2---2-2-2-2-2---2--------2-2---------2-2-----4-------4---2----2-4-4---|
D-|-2-------2-4-4-2-4---2------0-------4-4----4------5---6-6-6---0------5-5---|
A-|-0-------0-0-0-0-0---0--------------5-5-------5---5---7-7-----0------------|
E-|------------------------------------2-2-------3-------4-4------------------|

clean guitar
E-|---------------------------------------------------2---------|
B-|-----2-----3-------3-------------------------------2---------|
G-|-2---2-----2---3---4-------4---4---4---4---4---4---2--.....--|
D-|-2-2---2---0---4---4-------------------------------4---------|
A-|-0-------------4---2-----------------------------------------|
E-|---------------2---------------------------------------------|

clean guitar
E-|----------------------------2-----------------------|
B-|----------------------------2-----------------------|
G-|----4---4---4---4---4---4---2------4--4-.....-------|
D-|----------------------------4-----------------------|
A-|----------------------------------------------------|
E-|----------------------------------------------------|

acoustic guitar solo:
E-|----9-10p9-----9--10p9-10--10vv--10p9-----9--10--12vv-|
B-|-12--------12-------------------------12--------------|
G-|------------------------------------------------------|
D-|------------------------------------------------------|
A-|------------------------------------------------------|
E-|------------------------------------------------------|


E-|-12r10--9-------------------12b14vvrp10-9-----------|-10-12-9-10----|
B-|-----------12--10-9-10-9-------------------10--12---|------------12-|
G-|-------------------------9vv------------------------|---------------|
D-|----------------------------------------------------|---------------|
A-|----------------------------------------------------|---------------|
E-|----------------------------------------------------|---------------|


E-|------------------2--2-2-2-2------2----------------------------2---3--3----|
B-|------------------3--3-3-3-3------3-3-3------3-----------------3---3--3----|
G-|---------4---2----2--2-2-2-2------2----------4-4-------4----2--2---4--4----|
D-|-5---4---4---4-4--0--0-0-0-0--4-4-4------5---5---5-6-6-6-6--2--2---0--2----|
A-|-5---4---2---4-4--------------5-5-5------5---------7-7------0---------0----|
E-|-3---2------------------------2-2--------3---------4-4---------------------|


E-|-----------------------------2---2-------2---------------------------------|
B-|-2---2---2-2-3-3---3-2-------3---3-------3-3-----3-------------------------|
G-|-2---2---2-2-2-2---2---4-2---2---2-------2---2-2-4---4-4------4------------|
D-|-2---2---2-2-4-4---4---------0---0---4-4-4-------5--------6-6-6------------|
A-|-0---0---0-0-0-0---0-----------------5-5-5-------5--------7-7--------------|
E-|-------------------------------------2-2---------3--------4-4--------------|


E-|-----2---3-2-------------2-|
B-|-----3---3-3---2---2-----3-|
G-|-2---2---4-4---2---2-----2-|
D-|-2---2---5-5---2---2---0-0-|
A-|-0-------------0-----------|
E-|---------------------------|

piano:
E-|-------------------------7---7---7---7---9---9---10---10---10---10----|
B-|-7---7---8---8--10--10---8---8---9---9--10--11---12---12---10---10----|
G-|-7---7---7---7---7---7-----9---9---9---9---9---11---11---11---11---11-|
D-|---7---7---7---7---7---7----------------------------------------------|
A-|----------------------------------------------------------------------|
E-|----------------------------------------------------------------------|

>solo
E-|-----------2-2-2-2-------------------------------2---3-3-------------------|
B-|---------3-3-3-3-3-------3-----------------------3---3-3-------------------|
G-|---------2-2-2-2-2---------2----4--------4---2---2---4-4-------------------|
D-|---------0-0-0-0-0---4-4-----5--5----6-6-6---2---2---5-5-------------------|
A-|---------0-----------5-5-----5--5----7-7-----0---0---0-0-------------------|
E-|-41--1--------------2-2-----3--3----4-4-----------------------------------|


E-|------------------------|
B-|-2---2---2-3-3-3-3---2--|
G-|-2---2---2-2-2-2-2---2--|
D-|-2---2---2-4-4-4-4---2--|
A-|-0---0---0-0-0-0-0---0--|
E-|------------------------|


E-|----2----------------------------2-2--3-2----------------------------------|
B-|-3--3--------------3-------------3-3--3-3--2--2--2-2-----------2-----------|
G-|-2--2-------2------4-------4-----2-2--4-4--2--2--2-2--3-----4--2-----------|
D-|-0--0---4-4-4---5--5---6-6-6--2--2-2--5-5--2--2--2-2--4--4--4--2-----------|
A-|--------5-5-----5--5---7-7----0--0-0-------0--0--0-0--5--4--2--0-----------|
E-|--------2-2-----3------4-4-------------------------------2-----------------|


E-|-2--2--------2--------------------2----3-3--3-3-3-3------------------------|
B-|-3--3---------3------3------------2h3--3-3--3-3-3-3--2--2--2-3-3--3-2-3----|
G-|-2--2----------2-----4------4--2--2----4-4--4-4-4-4--2--2--2-2-2--2-2-2----|
D-|-0------4-4-------5--5--6-6-6--2--2----5-5--5-5-5-5--2--2--2-4-4--4-2-4-0--|
A-|--------5-5-------5--5--7-7----0--0----0-0-----------0--0--0-0-0--0-0-0----|
E-|--------2-2-------3-----4-4------------------------------------------------|

E-|----2------------------------------2---3-2---------------------------------|
B-|-3--3---------------------------2--3---3-3---2---2-------------------------|
G-|-2--2------2------4--------4----2--2---4-4---2---2--4--4--4--4--4--4...----|
D-|-0--0--4-4-4--5-5------6-6-6----2--2---5-5---2---2-------------------------|
A-|-------5-5----5-----5--7-7---7--0--0---------0---0-------------------------|
E-|-------2-2----3--------4-4-------------------------------------------------|

solo:
-----

middle
E-|---------------------------------------------------------------------------|
B-|---------------------------------------------------------------------------|
G-|---------------b11vvvr9p7-9---7---7-----7vvv-------------------------------|
D-|-7----7-9---7---------------9---------9------------------------------------|
A-|----9-----9----------------------------------------------------------------|
E-|---------------------------------------------------------------------------|

middle
E-|---------------------------------------------------------------------------|
B-|--------10b12--10---8--7---------------------------------------------------|
G-|---------------------------9-7----9b11-b11-b11-b11-9-----------------------|
D-|-9-8-7-------------------------7-------------------------------------------|
A-|-------------------------------------------------------9-7-5---------------|
E-|---------------------------------------------------------------------------|


left
E-|------------------------------------7---------------7--7-------------------|
B-|--------------------7/8---------------10-8-7-8--10-------------------------|
G-|---------7--------------------7--------------------------------------------|
D-|-----7/9----------------9--------------------------------------------------|
A-|---------------------------------------------------------------------------|
E-|---------------------------------------------------------------------------|
|
right
E-|---------------------------------------------------------------------------|
B-|---------------------------------------------------------------------------|
G-|--------------------6/7-------------7---7-----6---7--7--7------------------|
D-|-----7---------------------6--6---6-------9-7--------------7--7------------|
A-|-7/9-------------------------------------------------------------5---------|
E-|---------------------------------------------------------------------------|
|
middle
E-|---------------------------------------------------------------------------|
B-|----------------10-10/12---------------------9-----------------------------|
G-|-----------7/11-----------9b11r9-7---7---7-7----------------11r9---11r9767-|
D-|-----------------------------------9---9---------7-7-7/9--------10---------|
A-|---------------------------------------------------------10----------------|
E-|---------------------------------------------------------------------------|



/  left
|  E-|-------------------|
|  B-|-7--7--10--10------|
|  G-|-------------------|
|  D-|-------------------|
|  A-|-------------------|
|  E-|-------------------|
|
|  right
|  E-|-------------------|
|  B-|b14-15-17-19---19-|
/  G-|---------------19-|
D-|-------------------|
|  A-|-------------------|
|  E-|-------------------|
|
| middle
|  E-|-------------------|
|  B-|----------7--------|
|  G-|-6--7--9-----------|
|  D-|-------------------|
|  A-|-------------------|
E-|-------------------|
piano plays something like this:
E-|-7---7---7---7---7---7---7---7---7---7---7---7---7---7---5---5---7---7-----|
B-|-7---7---7---7---7---7---7---7---7---7---7---7---7---7---7---7---8---8-----|
G-|-7---7---7---7---7---7---7---7---7---7---7---7---7---7---6---6---7---7-----|
D-|---9---9---9---9---9---9---9---9---9---9---9---9---9---9---4---4---9---9---|
A-|---------------------------------------------------------------------------|
E-|-----------------------------------------------------------------7---------|


E-|------------------7---7-------|
B-|-10-9-----3---2---7---7-------|
G-|--9-9-----4---2---7---7-------|
D-|-11-9-----5---4-----9---9-...-|
A-|------------------------------|
E-|-0--0-------------7-----------|

clean guitar:
E-|-------------------------2---------------|
B-|-------------------------2---------------|
G-|-4---4---4---4---4---4---2--4--4....-----|
D-|-------------------------4---------------|
A-|-----------------------------------------|
E-|-----------------------------------------|


overdriven guitar:
(two guitars arr. for one.)
E-|-------------------2--------------------------------------2----------------|
B-|-------3---2---3---3---------3--------3---------5---------3----3--3---3-0--|
G-|-------4---2---2---2----------2-------4----------4----2---2----2--2---4-0--|
D-|-------4---4---0---0---4-4-----4----5---5-6-6-----6---0--------0--0--------|
A-|-------2---0-----------5-5--------5-------7-7---------0--------0--0--------|
E-|-3--2------------------2-2--------3-------4-4------------------------------|


E-|-----0--------------------------2--------------------------------2---3-2---|
B-|-----2---2-3-3-2-3---2--------3-3--------3--------3-----------3--3---3-3---|
G-|-2---2---2-2-2-2-2---2--------2-2---------2-2-----4-------4---2----2-4-4---|
D-|-2-------2-4-4-2-4---2------0-------4-4----4------5---6-6-6---0------5-5---|
A-|-0-------0-0-0-0-0---0--------------5-5-------5---5---7-7-----0------------|
E-|------------------------------------2-2-------3-------4-4------------------|

clean guitar
E-|---------------------------------------------------2---------|
B-|-----2-----3-------3-------------------------------2---------|
G-|-2---2-----2---3---4-------4---4---4---4---4---4---2--.....--|
D-|-2-2---2---0---4---4-------------------------------4---------|
A-|-0-------------4---2-----------------------------------------|
E-|---------------2---------------------------------------------|

clean guitar
E-|----------------------------2-----------------------|
B-|----------------------------2-----------------------|
G-|----4---4---4---4---4---4---2------4--4-.....-------|
D-|----------------------------4-----------------------|
A-|----------------------------------------------------|
E-|----------------------------------------------------|

acoustic guitar solo:
E-|----9-10p9-----9--10p9-10--10vv--10p9-----9--10--12vv-|
B-|-12--------12-------------------------12--------------|
G-|------------------------------------------------------|
D-|------------------------------------------------------|
A-|------------------------------------------------------|
E-|------------------------------------------------------|


E-|-12r10--9-------------------12b14vvrp10-9-----------|-10-12-9-10----|
B-|-----------12--10-9-10-9-------------------10--12---|------------12-|
G-|-------------------------9vv------------------------|---------------|
D-|----------------------------------------------------|---------------|
A-|----------------------------------------------------|---------------|
E-|----------------------------------------------------|---------------|


E-|------------------2--2-2-2-2------2----------------------------2---3--3----|
B-|------------------3--3-3-3-3------3-3-3------3-----------------3---3--3----|
G-|---------4---2----2--2-2-2-2------2----------4-4-------4----2--2---4--4----|
D-|-5---4---4---4-4--0--0-0-0-0--4-4-4------5---5---5-6-6-6-6--2--2---0--2----|
A-|-5---4---2---4-4--------------5-5-5------5---------7-7------0---------0----|
E-|-3---2------------------------2-2--------3---------4-4---------------------|


E-|-----------------------------2---2-------2---------------------------------|
B-|-2---2---2-2-3-3---3-2-------3---3-------3-3-----3-------------------------|
G-|-2---2---2-2-2-2---2---4-2---2---2-------2---2-2-4---4-4------4------------|
D-|-2---2---2-2-4-4---4---------0---0---4-4-4-------5--------6-6-6------------|
A-|-0---0---0-0-0-0---0-----------------5-5-5-------5--------7-7--------------|
E-|-------------------------------------2-2---------3--------4-4--------------|


E-|-----2---3-2-------------2-|
B-|-----3---3-3---2---2-----3-|
G-|-2---2---4-4---2---2-----2-|
D-|-2---2---5-5---2---2---0-0-|
A-|-0-------------0-----------|
E-|---------------------------|

piano:
E-|-------------------------7---7---7---7---9---9---10---10---10---10----|
B-|-7---7---8---8--10--10---8---8---9---9--10--11---12---12---10---10----|
G-|-7---7---7---7---7---7-----9---9---9---9---9---11---11---11---11---11-|
D-|---7---7---7---7---7---7----------------------------------------------|
A-|----------------------------------------------------------------------|
E-|----------------------------------------------------------------------|

>solo
E-|-----------2-2-2-2-------------------------------2---3-3-------------------|
B-|---------3-3-3-3-3-------3-----------------------3---3-3-------------------|
G-|---------2-2-2-2-2---------2----4--------4---2---2---4-4-------------------|
D-|---------0-0-0-0-0---4-4-----5--5----6-6-6---2---2---5-5-------------------|
A-|---------0-----------5-5-----5--5----7-7-----0---0---0-0-------------------|
E-|-41--1--------------2-2-----3--3----4-4-----------------------------------|


E-|------------------------|
B-|-2---2---2-3-3-3-3---2--|
G-|-2---2---2-2-2-2-2---2--|
D-|-2---2---2-4-4-4-4---2--|
A-|-0---0---0-0-0-0-0---0--|
E-|------------------------|


E-|----2----------------------------2-2--3-2----------------------------------|
B-|-3--3--------------3-------------3-3--3-3--2--2--2-2-----------2-----------|
G-|-2--2-------2------4-------4-----2-2--4-4--2--2--2-2--3-----4--2-----------|
D-|-0--0---4-4-4---5--5---6-6-6--2--2-2--5-5--2--2--2-2--4--4--4--2-----------|
A-|--------5-5-----5--5---7-7----0--0-0-------0--0--0-0--5--4--2--0-----------|
E-|--------2-2-----3------4-4-------------------------------2-----------------|


E-|-2--2--------2--------------------2----3-3--3-3-3-3------------------------|
B-|-3--3---------3------3------------2h3--3-3--3-3-3-3--2--2--2-3-3--3-2-3----|
G-|-2--2----------2-----4------4--2--2----4-4--4-4-4-4--2--2--2-2-2--2-2-2----|
D-|-0------4-4-------5--5--6-6-6--2--2----5-5--5-5-5-5--2--2--2-4-4--4-2-4-0--|
A-|--------5-5-------5--5--7-7----0--0----0-0-----------0--0--0-0-0--0-0-0----|
E-|--------2-2-------3-----4-4------------------------------------------------|

E-|----2------------------------------2---3-2---------------------------------|
B-|-3--3---------------------------2--3---3-3---2---2-------------------------|
G-|-2--2------2------4--------4----2--2---4-4---2---2--4--4--4--4--4--4...----|
D-|-0--0--4-4-4--5-5------6-6-6----2--2---5-5---2---2-------------------------|
A-|-------5-5----5-----5--7-7---7--0--0---------0---0-------------------------|
E-|-------2-2----3--------4-4-------------------------------------------------|

solo:
-----

middle
E-|---------------------------------------------------------------------------|
B-|---------------------------------------------------------------------------|
G-|---------------b11vvvr9p7-9---7---7-----7vvv-------------------------------|
D-|-7----7-9---7---------------9---------9------------------------------------|
A-|----9-----9----------------------------------------------------------------|
E-|---------------------------------------------------------------------------|

middle
E-|---------------------------------------------------------------------------|
B-|--------10b12--10---8--7---------------------------------------------------|
G-|---------------------------9-7----9b11-b11-b11-b11-9-----------------------|
D-|-9-8-7-------------------------7-------------------------------------------|
A-|-------------------------------------------------------9-7-5---------------|
E-|---------------------------------------------------------------------------|


left
E-|------------------------------------7---------------7--7-------------------|
B-|--------------------7/8---------------10-8-7-8--10-------------------------|
G-|---------7--------------------7--------------------------------------------|
D-|-----7/9----------------9--------------------------------------------------|
A-|---------------------------------------------------------------------------|
E-|---------------------------------------------------------------------------|
|
right
E-|---------------------------------------------------------------------------|
B-|---------------------------------------------------------------------------|
G-|--------------------6/7-------------7---7-----6---7--7--7------------------|
D-|-----7---------------------6--6---6-------9-7--------------7--7------------|
A-|-7/9-------------------------------------------------------------5---------|
E-|---------------------------------------------------------------------------|
|
middle
E-|---------------------------------------------------------------------------|
B-|----------------10-10/12---------------------9-----------------------------|
G-|-----------7/11-----------9b11r9-7---7---7-7----------------11r9---11r9767-|
D-|-----------------------------------9---9---------7-7-7/9--------10---------|
A-|---------------------------------------------------------10----------------|
E-|---------------------------------------------------------------------------|



/  left
|  E-|-------------------|
|  B-|-7--7--10--10------|
|  G-|-------------------|
|  D-|-------------------|
|  A-|-------------------|
|  E-|-------------------|
|
|  right
|  E-|-------------------|
|  B-|b14-15-17-19---19-|
/  G-|---------------19-|
D-|-------------------|
|  A-|-------------------|
|  E-|-------------------|
|
| middle
|  E-|-------------------|
|  B-|----------7--------|
|  G-|-6--7--9-----------|
|  D-|-------------------|
|  A-|-------------------|
E-|-------------------|
piano plays something like this:
E-|-7---7---7---7---7---7---7---7---7---7---7---7---7---7---5---5---7---7-----|
B-|-7---7---7---7---7---7---7---7---7---7---7---7---7---7---7---7---8---8-----|
G-|-7---7---7---7---7---7---7---7---7---7---7---7---7---7---6---6---7---7-----|
D-|---9---9---9---9---9---9---9---9---9---9---9---9---9---9---4---4---9---9---|
A-|---------------------------------------------------------------------------|
E-|-----------------------------------------------------------------7---------|


E-|------------------7---7-------|
B-|-10-9-----3---2---7---7-------|
G-|--9-9-----4---2---7---7-------|
D-|-11-9-----5---4-----9---9-...-|
A-|------------------------------|
E-|-0--0-------------7-----------|

clean guitar:
E-|-------------------------2---------------|
B-|-------------------------2---------------|
G-|-4---4---4---4---4---4---2--4--4....-----|
D-|-------------------------4---------------|
A-|-----------------------------------------|
E-|-----------------------------------------|


overdriven guitar:
(two guitars arr. for one.)
E-|-------------------2--------------------------------------2----------------|
B-|-------3---2---3---3---------3--------3---------5---------3----3--3---3-0--|
G-|-------4---2---2---2----------2-------4----------4----2---2----2--2---4-0--|
D-|-------4---4---0---0---4-4-----4----5---5-6-6-----6---0--------0--0--------|
A-|-------2---0-----------5-5--------5-------7-7---------0--------0--0--------|
E-|-3--2------------------2-2--------3-------4-4------------------------------|


E-|-----0--------------------------2--------------------------------2---3-2---|
B-|-----2---2-3-3-2-3---2--------3-3--------3--------3-----------3--3---3-3---|
G-|-2---2---2-2-2-2-2---2--------2-2---------2-2-----4-------4---2----2-4-4---|
D-|-2-------2-4-4-2-4---2------0-------4-4----4------5---6-6-6---0------5-5---|
A-|-0-------0-0-0-0-0---0--------------5-5-------5---5---7-7-----0------------|
E-|------------------------------------2-2-------3-------4-4------------------|

clean guitar
E-|---------------------------------------------------2---------|
B-|-----2-----3-------3-------------------------------2---------|
G-|-2---2-----2---3---4-------4---4---4---4---4---4---2--.....--|
D-|-2-2---2---0---4---4-------------------------------4---------|
A-|-0-------------4---2-----------------------------------------|
E-|---------------2---------------------------------------------|

clean guitar
E-|----------------------------2-----------------------|
B-|----------------------------2-----------------------|
G-|----4---4---4---4---4---4---2------4--4-.....-------|
D-|----------------------------4-----------------------|
A-|----------------------------------------------------|
E-|----------------------------------------------------|

acoustic guitar solo:
E-|----9-10p9-----9--10p9-10--10vv--10p9-----9--10--12vv-|
B-|-12--------12-------------------------12--------------|
G-|------------------------------------------------------|
D-|------------------------------------------------------|
A-|------------------------------------------------------|
E-|------------------------------------------------------|


E-|-12r10--9-------------------12b14vvrp10-9-----------|-10-12-9-10----|
B-|-----------12--10-9-10-9-------------------10--12---|------------12-|
G-|-------------------------9vv------------------------|---------------|
D-|----------------------------------------------------|---------------|
A-|----------------------------------------------------|---------------|
E-|----------------------------------------------------|---------------|


E-|------------------2--2-2-2-2------2----------------------------2---3--3----|
B-|------------------3--3-3-3-3------3-3-3------3-----------------3---3--3----|
G-|---------4---2----2--2-2-2-2------2----------4-4-------4----2--2---4--4----|
D-|-5---4---4---4-4--0--0-0-0-0--4-4-4------5---5---5-6-6-6-6--2--2---0--2----|
A-|-5---4---2---4-4--------------5-5-5------5---------7-7------0---------0----|
E-|-3---2------------------------2-2--------3---------4-4---------------------|


E-|-----------------------------2---2-------2---------------------------------|
B-|-2---2---2-2-3-3---3-2-------3---3-------3-3-----3-------------------------|
G-|-2---2---2-2-2-2---2---4-2---2---2-------2---2-2-4---4-4------4------------|
D-|-2---2---2-2-4-4---4---------0---0---4-4-4-------5--------6-6-6------------|
A-|-0---0---0-0-0-0---0-----------------5-5-5-------5--------7-7--------------|
E-|-------------------------------------2-2---------3--------4-4--------------|


E-|-----2---3-2-------------2-|
B-|-----3---3-3---2---2-----3-|
G-|-2---2---4-4---2---2-----2-|
D-|-2---2---5-5---2---2---0-0-|
A-|-0-------------0-----------|
E-|---------------------------|

piano:
E-|-------------------------7---7---7---7---9---9---10---10---10---10----|
B-|-7---7---8---8--10--10---8---8---9---9--10--11---12---12---10---10----|
G-|-7---7---7---7---7---7-----9---9---9---9---9---11---11---11---11---11-|
D-|---7---7---7---7---7---7----------------------------------------------|
A-|----------------------------------------------------------------------|
E-|----------------------------------------------------------------------|

>solo
E-|-----------2-2-2-2-------------------------------2---3-3-------------------|
B-|---------3-3-3-3-3-------3-----------------------3---3-3-------------------|
G-|---------2-2-2-2-2---------2----4--------4---2---2---4-4-------------------|
D-|---------0-0-0-0-0---4-4-----5--5----6-6-6---2---2---5-5-------------------|
A-|---------0-----------5-5-----5--5----7-7-----0---0---0-0-------------------|
E-|-41--1--------------2-2-----3--3----4-4-----------------------------------|


E-|------------------------|
B-|-2---2---2-3-3-3-3---2--|
G-|-2---2---2-2-2-2-2---2--|
D-|-2---2---2-4-4-4-4---2--|
A-|-0---0---0-0-0-0-0---0--|
E-|------------------------|


E-|----2----------------------------2-2--3-2----------------------------------|
B-|-3--3--------------3-------------3-3--3-3--2--2--2-2-----------2-----------|
G-|-2--2-------2------4-------4-----2-2--4-4--2--2--2-2--3-----4--2-----------|
D-|-0--0---4-4-4---5--5---6-6-6--2--2-2--5-5--2--2--2-2--4--4--4--2-----------|
A-|--------5-5-----5--5---7-7----0--0-0-------0--0--0-0--5--4--2--0-----------|
E-|--------2-2-----3------4-4-------------------------------2-----------------|


E-|-2--2--------2--------------------2----3-3--3-3-3-3------------------------|
B-|-3--3---------3------3------------2h3--3-3--3-3-3-3--2--2--2-3-3--3-2-3----|
G-|-2--2----------2-----4------4--2--2----4-4--4-4-4-4--2--2--2-2-2--2-2-2----|
D-|-0------4-4-------5--5--6-6-6--2--2----5-5--5-5-5-5--2--2--2-4-4--4-2-4-0--|
A-|--------5-5-------5--5--7-7----0--0----0-0-----------0--0--0-0-0--0-0-0----|
E-|--------2-2-------3-----4-4------------------------------------------------|

E-|----2------------------------------2---3-2---------------------------------|
B-|-3--3---------------------------2--3---3-3---2---2-------------------------|
G-|-2--2------2------4--------4----2--2---4-4---2---2--4--4--4--4--4--4...----|
D-|-0--0--4-4-4--5-5------6-6-6----2--2---5-5---2---2-------------------------|
A-|-------5-5----5-----5--7-7---7--0--0---------0---0-------------------------|
E-|-------2-2----3--------4-4-------------------------------------------------|

solo:
-----

middle
E-|---------------------------------------------------------------------------|
B-|---------------------------------------------------------------------------|
G-|---------------b11vvvr9p7-9---7---7-----7vvv-------------------------------|
D-|-7----7-9---7---------------9---------9------------------------------------|
A-|----9-----9----------------------------------------------------------------|
E-|---------------------------------------------------------------------------|

middle
E-|---------------------------------------------------------------------------|
B-|--------10b12--10---8--7---------------------------------------------------|
G-|---------------------------9-7----9b11-b11-b11-b11-9-----------------------|
D-|-9-8-7-------------------------7-------------------------------------------|
A-|-------------------------------------------------------9-7-5---------------|
E-|---------------------------------------------------------------------------|


left
E-|------------------------------------7---------------7--7-------------------|
B-|--------------------7/8---------------10-8-7-8--10-------------------------|
G-|---------7--------------------7--------------------------------------------|
D-|-----7/9----------------9--------------------------------------------------|
A-|---------------------------------------------------------------------------|
E-|---------------------------------------------------------------------------|
|
right
E-|---------------------------------------------------------------------------|
B-|---------------------------------------------------------------------------|
G-|--------------------6/7-------------7---7-----6---7--7--7------------------|
D-|-----7---------------------6--6---6-------9-7--------------7--7------------|
A-|-7/9-------------------------------------------------------------5---------|
E-|---------------------------------------------------------------------------|
|
middle
E-|---------------------------------------------------------------------------|
B-|----------------10-10/12---------------------9-----------------------------|
G-|-----------7/11-----------9b11r9-7---7---7-7----------------11r9---11r9767-|
D-|-----------------------------------9---9---------7-7-7/9--------10---------|
A-|---------------------------------------------------------10----------------|
E-|---------------------------------------------------------------------------|

/  left
|  E-|-------------------|
|  B-|-7--7--10--10------|
|  G-|-------------------|
|  D-|-------------------|
|  A-|-------------------|
|  E-|-------------------|
|
|  right
|  E-|-------------------|
|  B-|b14-15-17-19---19-|
/  G-|---------------19-|
D-|-------------------|
|  A-|-------------------|
|  E-|-------------------|
|
| middle
|  E-|-------------------|
|  B-|----------7--------|
|  G-|-6--7--9-----------|
|  D-|-------------------|
|  A-|-------------------|
E-|-------------------|

Вверх


Save Me

E|-----------------------------------------------|
B|-14b15----14b15r14p12------17b19__r17-15141715-|
G|---------------------14------------------------|
D|-----------------------------------------------|
A|-----------------------------------------------|
E|-----------------------------------------------|

E|-------14-17-14-15-14-15-14-------------------------19b21-|
B|----15----------------------15---19b21----b21_r19p17------|
G|-14-------------------------------------------------------|
D|----------------------------------------------------------|
A|----------------------------------------------------------|
E|----------------------------------------------------------|

E|--b21__b22__21r1917------------------------|
B|-------------------201917--17--------------|
G|-------------------------19--1916--1619----|
D|---------------------------------19--------|
A|----------------------------------------17-|
E|-------------------------------------------|

Вверх


Scandal

E|-14b15-14-12-----12------------------------------------------|
B|--------------15-----------------7-7----------8-8-8-7b8_r7-7-|
G|--------------------14b16_r14-b9-----7b9__r-7----------------|
D|-------------------------------------------------------------|
A|-------------------------------------------------------------|
E|-------------------------------------------------------------|

E|-----------------------------10--------------------|
B|-8p7p5--------------8-10b_12---12_r10p8-10b12-10v--|
G|-------7-7b9---77----------------------------------|
D|---------------------------------------------------|
A|---------------------------------------------------|
E|---------------------------------------------------|

E|-------------12------151312------------------14---------|
B|---------13------13--------151312--------15----15--1517-|
G|-7/---12--12--12----------------1412--14--14----14------|
D|-----14------------------------------16-----------------|
A|--------------------------------------------------------|
E|--------------------------------------------------------|

E|171514----------19b20-|-19b20r1917--19----------|
B|------1715------------|-----------20--20b22vv---|
G|---------171614-------|-------------------------|
D|----------------------|-------------------------|
A|----------------------|-------------------------|
E|----------------------|-------------------------|

Вверх


Seaside
Rendezvous

piano intro arranged for guitar
E|---------3---------------------------------------------------|
B|-------------6---5-3-3-2-3-2-3-10-8--6---5-3-----------------|
G|-0h2-3/4-----4---4-4-4-3-4-3-4-10-9--7---5-4-----------------|
D|-----------5---5---------------12-10-9---7-5-----------------|
A|-2h3-4/5-----------------------------------------------------|
E|-------------------3-3-------------------------3-3--3-3--3-3-|

Вверх


Seven Seas Of Rhye

solo:
E|-------------------------------------------------------------|
B|-------------------------------21b23---r2221-18--------21b23-|
G|----------------18--2018-----------------------20182018------|
D|--------18--20-------------20--------------------------------|
A|18--20-------------------------------------------------------|
E|-------------------------------------------------------------|

E|-------------------------------------------------------------|
B|-b23__r21p1821t23p21t23p21-----------------------------------|
G|--------------------------20b22__r201820182022__r20p18--18br-|
D|-------------------------------------------------------------|
A|-------------------------------------------------------------|
E|-------------------------------------------------------------|

E|----------------21b23------18-------------------------19b21-|
B|-------------------------21--2118---------------------------|
G|-20p18----18br-------------------21201820182018---20--------|
D|------20---------------------------------------18-----------|
A|------------------------------------------------------------|
E|------------------------------------------------------------|

Вверх


She Makes Me

Intro:    D A   D A   D A   D A

[1]
D A     D A    D A        D A
I love,          she makes me
D          A    D A   D           C
She is my heart        she is my love
G          A    D A   D A
She is my love

[2]
D   A   D A   D          A        D A
I know,       Im jealous of her
D             A    D A  D           C
She makes me need,       she is my love
G          A    D A E7
She is my love

[Chorus:]

A         E           A            D**
Who knows wholl she make me, as I lie in her cocoon?
A          C#7    F#m     B7
And the world will surely heal my ills
D                                A
Im warm and terrified, she makes me so

[3]
I know, the day I leave her
Ill love her still, she is my love
A    E7
she is my love

[Chorus music:]
Who knows where my dreams will end
Ill follow as they go
But the world will know how long I take
And if Im very slow, she makes me so.

D A   D A

D           C     C C C
She is my love
C           Dm7
She is my love    (ad lib, fade)

Вверх


She Makes Me (2
вариант)

collection of riffs

|-2-2-2-0----|  |-2-2-2-3----|  |-3-3-3-3----|  |-3-3-3-0----|
|-3-3-3-2----|  |-3-3-3-1----|  |-1-1-1-3----|  |-3-3-3-2----|
|-2-2-2-2----|  |-2-2-2-0----|  |-0-0-0-0----|  |-0-0-0-2----|
|-0-0-0-2----|  |-0-0-0-0----|  |-0-2-2-0----|  |-0-0-0-2----|
|-------0----|  |------------|  |-------2----|  |-2-2-2-0----|
|------------|  |------------|  |------------|  |------------|

-0---0--0--0--0--0--0--0--0--2--2--2--2--2--2--2----2---0--0--4--4--2--2-------
-0---2--2--0--0--2--2--2--2--0--0--2--2--0--2--3--232-3-2--2--6--6--2--2--4--4-
-1---2--2--1--1--2--2--1--0--2--2--2--2--2--2--2----2---2--2--4--4--2--2--4--4-
-2---2--2--2--2--2--2--2--2--0--0--0--0--0--0--0----0---2--2--6--6--4--4--4--4-
-2---0--0--2--2--0--0--0--0-----------------------------0--0--4--4--4--4--2--2-
-0---------0--0-----------------------------------------------------2--0-------

-2--2--2---
-3--3--3---
-2--2--2---
-0--0--0---
-----------
-----------

|-5-5-5-3----|  |-3-3-3-1----|  |-3-3-3-1----|  |-3-3-3-1----|  |-1-0-1-0--|
|-7-7-7-5----|  |-5-5-5-3----|  |-5-5-5-1----|  |-3-3-3-1----|  |-3-2-2-1--|
|-7-7-7-5----|  |-5-5-5-3----|  |-4-4-4-2----|  |-4-4-4-2----|  |-3-3-3-2--|
|-0-0-0-0----|  |-0-0-0-0----|  |-0-0-0-0----|  |-0-0-0-0----|  |-------0--|
|------------|  |------------|  |------------|  |------------|  |----------|
|------------|  |------------|  |------------|  |------------|  |----------|

Вверх


Sleeping On The
Sidewalk

G|-------------|-------------|-----|-----|-------------|---------6-7-8-|
D|-------------|-----6-7-8-9-|-0//-|-0//-|-------------|-----6-7-------|
A|-----6-7-8-9-|-------------|-//0-|-//0-|-----6-7-8-9-|---------------|
E|-7-7---------|-7-7---------|-----|-----|-7-7---------|-7-7-----------|
I was nothin...

G|-----------|-----9--7-9--|--------------|--------------|------11-9---------|
D|-----------|-------------|--------------|-----6-7-8--9-|------------119--7-|
A|-7-7-5-4-3-|----7--------|-----6-7-8--9-|--------------|-9--9--------------|
E|-----------|-7-7---------|-7-7----------|-7-7----------|-------------------|
Ive been...

G|-------|-----------------11-11|--------------|--------------|---------------|
D|-7-----|----------------------|--------------|-----6-7-8--9-|----9--7-------|
A|--/7-5-|-----6-7-8--9--9------|-----6-7-8--9-|--------------|--------9-/7-5-|
E|-------|-7-7------------------|-7-7----------|-7-7----------|-7-7-----------|
So round the...

G|-----------------|---------------|---------------|-------------------------|
D|-----9--7--------|---------------|-----6-7-8--9--|-------------------------|
A|----------9-7-5--|-----6-7-8--9--|---------------|-------------------------|
E|-7-7-------------|-7-7-----------|-7-7-----------|-7-7----7-7----7-7-7-----|


G|---9--7--------|-------9--7-9--|----------------|--------------|
D|--------9-7-5--|---------------|-----9--7-------|-----9--7-----|
A|-7-------------|-----7---------|----------9-7-5-|----------6-7-|
E|---------------|-7-7-----------|-7-7------------|-7-7----------|
Sleepin on the...

G|-------11-11-9--9-------|-----------------|-------------|-------------------|
D|-------------------9--7-|-9--7------------|-------------|-------------------|
A|-9--9-------------------|------9-/7-5-----|-----6-7-7h8-|-9-----------------|
E|------------------------|-------------7-5-|-7-7---------|----2-2-2---2-2-2--|


G|-----------------|-----------------|-------------------|--------------------|
D|-----------------|-----------------|-------------------|--------------------|
A|-7-7-7-7-7-7-7-7-|-7-7-7-7-7-7-7---|-----6-6-7-7-8--9--|-----6-6-9--9---11--|
E|-----------------|-----------------|-7-7---------------|-7-7----------------|
They took me...

G|------------------|------------------|--------------------|-----------------|
D|----6-6-9--9--6-6-|-----6-6-7-7-8--9-|------8-8-8-8-------|-----------------|
A|-7-7--------------|-7-7--------------|-9--9---------9--9--|-7-7-9--9--7-7-7-|
E|------------------|------------------|--------------------|-----------------|


G|--------------|--------------|---------------|---------------|--------------|
D|--------------|-----6-7-8--9-|------0//------|------0//------|-----6-7-8--9-|
A|-----6-7-8--9-|--------------|------//0------|------//0------|--------------|
E|-7-7----------|-7-7----------|---------------|---------------|-7-7----------|
And i was...

G|-------------------|-----9--7--------|--------|----------------|-----------|
D|-9--11-11-12-13-14-|----------9-/7-5-|---0/---|-----9--7-------|----0/-----|
A|-------------------|-7-7-------------|---/0---|----------9-7-5-|----/0-----|
E|-------------------|-----------------|--------|-7-7------------|-----------|


G|----------------|-----------|-------------------|-------------|-------------|
D|-------8-8-11-8-|---7-------|-------------------|-------------|----6-7-8--9-|
A|-9--9-----------|-7---75----|----6-7-8--9--9--9-|----6-7-8--9-|-------------|
E|----------------|---------7-|-7-7---------------|-7-7---------|-7-7---------|


G|-----6-7-8--9--|---------------|--------|
D|---------------|---------------|---0/---|
A|---------------|-----6-7-8--9--|---/0---|
E|-7-7-----------|-7-7-----------|--------|


G|---------------|--------------|---------6-7-8-|-------7-----|--------------|
D|-----6-7-8--9--|--------------|-----6-7-------|-----8---7-5-|-----9--7-----|
A|---------------|-----6-7-8--9-|---------------|-7-7---------|-7-7-------75-|
E|-7-7-----------|-7-7----------|-7-7-----------|-------------|--------------|

---3---
G|----------------|-------------|----11-9--------|-------------|-------------|
D|-----9--7-------|-------------|---------9--7-5-|---7---------|-------------|
A|----------9-7-5-|-----6-7-8---|-9--------------|-7---7-5-----|-----6-7-7h8-|
E|-7-7------------|-7-7---------|----------------|---------7-5-|-7-7---------|


G|----11-11-11---|-----------------|-----------------|------------------------|
D|---------------|-----------------|-----------------|------------------------|
A|-9-------------|-7-7-7-7-7-7-7-7-|-7-7-7-7-7-7-7---|------6-6--7-7--8--9----|
E|---------------|-----------------|-----------------|-7-7--------------------|
Now they ...

G|-----------------|------------------|-----------------|---------------------|
D|-----------------|----6-6-9--9--6-6-|----6-6-7-7-8--9-|-------8-8-8-8-------|
A|----6-6-9--9--11-|-7-7--------------|-7-7-------------|-9--9----------9--9--|
E|-7-7-------------|------------------|-----------------|---------------------|


G|-----------------|--------------|--------------|---------------|------------|
D|-----------------|--------------|-----6-7-8--9-|------0//------|------------|
A|-7-7-9--9--7-7-7-|-----6-7-8--9-|--------------|------//0------|-----6-7-9--|
E|-----------------|-7-7----------|-7-7----------|-----2-time----|-7-7--------|
Back to...

G|--------------|-----9--7-------|-----8--7----|-------------|-------------|
D|--------------|----------9-7-5-|---------7-5-|----9--7-----|-----9--7----|
A|--------------|-7-7------------|-7-7---------|---------7-5-|-----------7-|
E|-7-7-9--10-11-|----------------|-------------|-7-7---------|-7-7---------|
Sleepin on the...

G|-------11-9----|-------------|---------|------------|
D|-------------9-|---7---------|---------|-------9--9-|
A|-9--9----------|-7---75------|---6-7-8-|-9--11------|..he-he..
E|---------------|---------7-5-|-7-------|------------|

Вверх


Sleeping On The
Sidewalk (2 вариант)

one,two,three
E|----------------------------------------------------|
B|----------------------------------------------------|
G|----------------------------------------------------|
D|---------9---------------------------------9--------|
A|-------9---12p9-12-9-------12-12-9-------9--9-9-9-x-|
E|-10-11---------------12-10---------12-10------------|

E|------------------|----------------|-----------------|
B|------------------|----------------|-----------------|
G|------------------|--9---7b8-------|-----------------|
D|----9---7-7-------|-----9---9-p7h9-|----9---7-7------|
A|-------9---7b8-5--|----------------|-------9---/7-5--|
E|-x-x-------------7|-x--------------|-x-7-------------|

E|--------------------|--------------------|------------------|
B|--------------------|--------------------|------------------|
G|----9--7b8----------|--------------------|-----9---7b8------|
D|------9----9-p7h9p7-|-----9-9p7--7x------|--------9---9-9p7-|
A|-------------------9|-----------9---/7-5-|------------------|
E|-x-x----------------|---7----------------|-x-x--------------|

E|--------------------------------|----------------|
B|--------------------------------|---10---9---x---|
G|--------------------------------|----9---9---x---|
D|-9--7-7-7---------9-9-9---9---9-|---11---9---x---|
A|---------7-5--5/9-9-9-9---9-----|----------------|
E|--------------------------------|--------------9-|

E|-------------------|----------------|---------------|
B|-x-x--x-10---9--7--|----------------|---------------|
G|-x-x--x--9---9--7--|----------------|---------------|
D|-x-x--x-11---9--7--|-----9---7------|----9---9-9-9--|
A|-------------------|-x-9---9---97-5-|---x--9-9-9-10-|
E|-------------------|----------------|---------------|

E|--------------------|----------------------------------------|
B|-----12--11-11------|----------------------------------------|
G|-11--11--11-11------|--------------------------------11-11---|
D|-11---x--11-11-11---|/9-7-7----------------------9---11-11---|
A|-9------------------|------/7-5----------6-7-8-9-----8--8-12-|
E|--------------------|-----------777-777-7--------------------|

E|----------------|--------------|----------------|
B|----------------|--------------|----------------|
G|----------------|--------------|----------------|
D|----9--x7-------|----9--7-7----|----9--x7-------|
A|-----------97-5-|-----------97-|-----------97-5-|
E|-x-x------------|-x-x----------|-x-x------------|

E|----------------------|-----------------|-------------|
B|----------------------|-----------------|-------------|
G|-----9--7b8-----------|-----------------|-------------|
D|------------9--7h9p7--|-----9--7--------|--9--7-7-----|
A|--------------------9-|-------9---97-5--|-x--9----7/9-|
E|-7-7------------------|-x-x-------------|-------------|

E|--------------------|------------------|-----------------|
B|-----------7-7-72/7-|-x---9--9---------|------10--9--7---|
G|-----------7-7-72/7-|-x---9--9---------|-------9--9--7---|
D|-9-7--9-9--7-7-72/7-|-x---9--9-------9-|------11--9--7---|
A|--------------------|-----------9h11---|-----------------|
E|--------------------|------------------|-----------------|

E|----------------------------|------------------|
B|-----------10b12--10b12-b11-|-x--11--11/12--11-|
G|----------------------------|-x--11--11/12--11-|
D|----9-x7--------------------|-x--11------------|
A|----------------------------|------------------|
E|-x-x------------------------|------------------|

E|--------------------------------------------|
B|--------------------------------------------|
G|-9------------------------------------------|
D|----7---------------------9p7---------------|
A|------/7--5-------6-7-8-9-----x-7-7--7-6-x--|
E|------------7-7--7--------------------------|

E|----------------------------------------|
B|-x----9----9--9-9---9-x--x-10--x-9--9-9-|
G|-x----9----9--9-9---9-x--x--9--x-9--9-9-|
D|-x----9----9--9-9---9-x--x-11--x-9--9-9-|
A|----------------------------------------|
E|----------------------------------------|

E|----------------|-------------------4---|
G|-----------4--4-|-4--4------4--4-5--5-x-|
G|-4--4-6--4-4--4-|-4--4------4--4-4----x-|
D|-4--4-6--4-4--4-|-4--4-6--4-4--4-6----x-|
A|----------------|-----------------------|
E|----------------|-----------------------|

E|----------------------------------------------|
B|-x-10---10-9---9-x---9-x---x-10---10-9--10-x--|
G|-x--9----9-9---9-x---9-x---x--9----9-9---9-x--|
D|-x-11---11-9---9-x---9-x---x-11---11-9---9-x--|
A|----------------------------------------------|
E|----------------------------------------------|

E|-----------------------------------------------------|
B|-x-11---11-11---x-11--11-11--x-9---9-9--------9--9---|
G|-x-11---11-11---x-11--11-11--x-9---9-9-------79--7---|
D|-x-11---11-11---x-11--11-11--x-9---9-9---7/9---------|
A|-----------------------------------------------------|
E|-----------------------------------------------------|

E|---------------------|-------------------|-------------------|
B|---------------------|-------------------|-------------------|
G|-9---7-----7---------|-------------------|-----x-------------|
D|-7---7---7-7---------|------9---7b8------|-----x---x-7-------|
A|----------------8----|--------------97-5-|--------------97-5-|
E|-7-x---6-7--------10-|-x-7-----7---------|-x-7---------------|

E|------------------------|-------------------|----------------|
B|------------------------|-------------------|----------------|
G|-----9----7b8-----------|-------------------|-------------9b-|
D|--------9------9-7h9p7--|----9----7--7------|-----9---7------|
A|----------------------9-|-x-x---9------97-5-|--------9-------|
E|--x---------------------|-------------------|-x-x------------|

E|-----------------|----------7-------------------|------------|
B|-----------------|-10-10b12---10-7--------------|-9-10-9-x-x-|
G|-----------------|-----------------10-9-7-9-9---|-9-10-9-x-x-|
D|-9--9-7--x-9-9-x-|----------------------------9-|-9-10-9-x-x-|
A|-----------------|------------------------------|------------|
E|-----------------|------------------------------|------------|

E|----------------|--------------------|----7----------|
B|-x-10--9--7--7--|--------------------|---------------|
G|-x--9--9--7--7--|--------------------|---------------|
D|-x-11--9--7--7--|-----7---7------7h9-|---------9--9--|
A|----------------|--------x---7h9-----|---------------|
E|----------------|-x-x----------------|-x----x--------|

E|---------------------|------------------|--------------------|
B|------11--11-12--11--|------------------|--------------------|
G|------11--11-11--11--|------------------|--------------------|
D|-7----11--11-11--117-|-/9-7-------------|----------9p7-------|
A|--99-9-9---9--9---9--|------/7-5--------|--6-7-8-9-----7-7-7-|
E|---------------------|-----------7-777--|-x------------------|

E|----7---------7------------|-------7-----7-----7-------|
B|-/7-----10b12---10-7-------|-10b12---b12---b12---------|
G|---------------------7b8---|---------------------7b8---|
D|-------------------------9-|-------------------------9-|
A|---------------------------|---------------------------|
E|---------------------------|---------------------------|

E|------7------7------7------7-------|
B|-10b12--10b12--10b12--10b12--10b12-|
G|-----------------------------------|
D|-----------------------------------|
A|-----------------------------------|
E|-----------------------------------|

E|7------7------7------7------7-|
B|--10b12--10b12--10b12--10b12--|
G|------------------------------|
D|------------------------------|
A|------------------------------|
E|------------------------------|

E|-------10----------|----------------|----------------|
B|-10b12-------------|----------------|----1010101010--|
G|----------9b11-7---|-7b9-7b9-7---7--|9/1111--1111----|
D|-----------------9-|-----------9---9|----------------|
A|-------------------|----------------|----------------|
E|-------------------|----------------|----------------|

E|-----------------------------------------|
B|----1010101010--1010101010--10101010--10-|
G|--11----------11----------1111-----------|
D|-----------------------------------------|
A|-----------------------------------------|
E|-----------------------------------------|

E|---------------------------------|
B|-10--1212----12----1212----12x---|
G|----------13----13------13-------|
D|---------------------------------|
A|---------------------------------|
E|---------------------------------|

E|----------------------------------------|
B|-14b15-12-------12---10b12--12---10b12--|
G|----------14b16----0-----------14-------|
D|----------------------------------------|
A|----------------------------------------|
E|----------------------------------------|

E|-----------------------------------------------|
B|--12-----12-----12------10---10--10--10b12-107-|
G|-----1111---1111---1111------------11----------|
D|-----------------------------------------------|
A|-----------------------------------------------|
E|-----------------------------------------------|

E|----------------------------------|
B|----------------------------------|
G|-b10r9-7-------------10--10--108--|
D|---------9-9-7-------10--10-------|
A|---------------9-8---8---8--------|
E|----------------------------------|

E|----------------------------------------|
B|-x----9----9--9-9---9-x--x-10--x-9--9-9-|
G|-x----9----9--9-9---9-x--x--9--x-9--9-9-|
D|-x----9----9--9-9---9-x--x-11--x-9--9-9-|
A|----------------------------------------|
E|----------------------------------------|

E|----------------|-------------------4---|
G|-----------4--4-|-4--4------4--4-5--5-5-|
G|-4--4-6--4-4--4-|-4--4------4--4-4----4-|
D|-4--4-6--4-4--4-|-4--4-6--4-4--4-6----6-|
A|----------------|-----------------------|
E|----------------|-----------------------|

E|----------------------------------------------|
B|-x-10---10-9---9-x---9-x---x-10---10-9--10-x--|
G|-x--9----9-9---9-x---9-x---x--9----9-9---9-x--|
D|-x-11---11-9---9-x---9-x---x-11---11-9---9-x--|
A|----------------------------------------------|
E|----------------------------------------------|

E|-----------------------------------------------------|
B|-x-11---11-11---x-11--11-11--x-9---9-9--------9--9---|
G|-x-11---11-11---x-11--11-11--x-9---9-9-------79--7---|
D|-x-11---11-11---x-11--11-11--x-9---9-9---7/9---------|
A|-----------------------------------------------------|
E|-----------------------------------------------------|

E|-----------------------------------------|
B|-9b10--------9b10---------9b10-----------|
G|-9b11-97-----9b11-9797----9b11-9-797-----|
D|--------9-------------9--------------9---|
A|-----------------------------------------|
E|----------7------------------------------|

E|---------------|--------------|
B|---------------|--------------|
G|---7-7---7-7---|-----7-7--72/-|
D|-777-7-7-7-7---|-----7-7--72/-|
A|---------------|-7h9----------|
E|---------------|--------------|

E|----------------------------------------|
B|-9--x-9--x-9--9----9---x-x-9--9--9--7b8-|
G|-9--x-9--x-9--9-7--9---x-x-8--7--7--7b8-|
D|-9--x-9--x-9--9-7--9---x-x-9--9--9------|
A|-7--x-7--x-7--7----7---x-x-7--7--7------|
E|----------------------------------------|

E|---------------|----------------|
B|---------------|----------------|
G|---------------|----------------|
D|----9---7------|-----9---9-9-9--|
A|----------97-5-|----------------|
E|-x-7---7-------|--7-7---7-------|

E|--------------|------------------------------|    transribed
B|-----10-9-9-9-|------------------------------|        by
G|---x--9-9-9-9-|------------------------x-7-8-|    Pinter Denes
D|-x-x-11-9-9-9-|-9-7--------------------x-7-7-|     1995 march
A|-x------------|-----97-5------6--7-8-9-----9-|
E|--------------|----------7-77-7--7-----------| ...he-he...

Вверх


Somebody To Love

Intro:
------
Piano:
N.C.
Caaaan.... anybody find me, somebody to love....

Piano: (no words:)  note  use Eb or G#/G
G#              Eb     Fm    C#       Eb
E|---------------------------------------------|
B|-------------6------4-----1------------------|
G|------3---5------3--------1-----6-6------8-8-|
D|-6-6----------------------3-----6-6--6---8-8-|
A|--------------------------3-----4-4--4---6-6-|
E|-4-4------4------3--------1------------------|
Thumb

Verse 1:
--------
G#		Eb	   Fm		G#   Bb		 Bb
Each day that I get up all tired, can barely stand on my knees,
G#   Eb     Fm		Bb		         Eb
Take a look in the mirror, and cry, at what youre doing to me
G#		Bb	  Eb		    Eb
I spent all my years in believe in you, but
Bb	  Eb
I just cant get no release,
C#
Lord!
G#			G#
Somebody (somebody), Somebody (somebody),
G#	G#/G Fm   C# (pause)      G#   G#/G Fm C# Eb <-intro
Can any-body find me, somebody to love

Verse 2:
--------
I work hard, everyday of my life, I work till I ache my bones
At the end ( ...of the day), I take home,
my pride oh and salvation
I go down on my knees and praise the Lord,
till the tears run down
from my eyes
Somebody (somebody), Somebody (somebody),
Can anybody find me, somebody to love

Break:  (electric guitar does chords, with lots of sliding!)
------
C#5///           C#5 ////	C#5       C#5        C#5
I work hard (..) everyday (..) I try and I try and I try,
F#					    F#m
But everybody wants to put me down, they say, Im going crazy,
Bb
Thats right I want to rip my brains, Ive got no common sense,
Eb with bends (see below)
Ive got nobody left to believe

Solo:
-----
Eb  and bends               Bass G#       G             F
E|------------------------------|------------------------------|
B|--11b--11-11b--11-11b--11-11b-|-9-11b(13)-b13-11-9--11p9-----|
G|------------------------------|---------------------------10-|
D|------------------------------|------------------------------|
A|------------------------------|------------------------------|
E|------------------------------|------------------------------|
yeah! yeah! yeah! yeah!

G#          Bb      Eb
E|--------------8---11p8----------------|
B|-------9--11b(13)-------11-9--11------|
G|--8h10---------------------------8--8-|
D|--------------------------------------|
A|--------------------------------------|
E|--------------------------------------|

G#           G                F
E|------------------------------------------|
B|------9--11b(13)-11b(13)-11b(13)-11p9-----|
G|-8h10----------------------------------10-|
D|------------------------------------------|
A|------------------------------------------|
E|------------------------------------------|

Bb               Eb
E|-----8---------------------|
B|-11b(13)--11p9h11----------|
G|------------------10b-10p8-|
D|---------------------------|
A|---------------------------|
E|---------------------------|

FAST!
G#     Bb         Eb
E|--11b(13)r11-9--8h9h11-10h11h13--11h13--15h16h18-|
B|-------------------------------------------------|
G|-------------------------------------------------|
D|-------------------------------------------------|
A|-------------------------------------------------|
E|-------------------------------------------------|

Eb              Bb         Eb     C#
E|------------------------------------|
B|------------------------------------|
G|-----------------3p1----------------|
D|------1--3p1----------3p1-----------|
A|---3----3-----3------------1h3p1----|
E|----------------------------------4-|

G#			G#
Somebody (somebody), Somebody (somebody),
G#	G#/G Fm   C# (pause)      G#
Can any-body find me, somebody to looooove

G#/G     Fm    C#     Eb
Can anybody, find me, someone to love

Verse 3:
--------

I feel I got no rythm, I just keep losing my beat
(you keep losing+losing)
Im alright, Im alright (hes alright)
Im gonna face it without fear
I just gotta get out of this prison cell, one day
Im gonna be free Loord

Pause

N.C:
Find me somebody to love me
( -> say lots, guitar comes in with palm muted
G#)
G  G#/G Fm   C#  (pause)
Can anybody find me, somebody tooooooo loooohohohove

Fading out:
-----------
G#   G#/G     Fm	C#         Eb
Can, anybody, find me, somebody to love   x lots

End

Chords:
-------

G#	466544
G#/G	366544  <- hard to play, play Eb if you want (either one)
Fm	133111
Eb	x68886
or	3xx34x   <-use thumb in fact its Eb/G
C#	x46664
C#5	x466xx
F#	244322
F#m	244222

!!!!!!!!!!!!!!!!!!!!!!!!!!!!!!!!!!

Another version of guitar solo
E|-----------------------------------------------|
B|-----------------------------------------------|
G|-15b17----15b17__rp13h15p13----------13--15b17-|
D|---------------------------15----13------------|
A|-----------------------------------------------|
E|-----------------------------------------------|

E|----------------------------------|
B|-16-------------------------------|
G|----b17__rp13--15--------10/13-13-|
D|-------------------13-------------|
A|----------------------------------|
E|----------------------------------|

E|---------------------------------------------|
B|--------13---------13---------13-------------|
G|-15b17------15b17------15b17------17r15p13---|
D|------------------------------------------15-|
A|---------------------------------------------|
E|---------------------------------------------|

E|------------------------------------|
B|------------------------------------|
G|--15b17__rp1315___b17---------------|
D|----------------------15b_16-15p13v-|
A|------------------------------------|
E|------------------------------------|

E|-------------------------------------------|
B|-16b18----16--14--13-14-b16v__r14p13-15-16-|
G|-------------------------------------------|
D|-------------------------------------------|
A|-------------------------------------------|
E|-------------------------------------------|

E|-------------------15-16-18v-|
B|-b18__r16p14-16-18-----------|
G|-----------------------------|
D|-----------------------------|
A|-----------------------------|
E|-----------------------------|

E|------------------------------------------------|
B|--------------------------11-10-9-8-------------|
G|----8--10-12_r10p8-10--8------------10b11rp8--8-|
D|-8------------------------------------------10--|
A|------------------------------------------------|
E|------------------------------------------------|

E|-------------------------|
B|-------------------------|
G|--------10p8h10p8h10p8---|
D|-8h10h11-----------6h8p6-|
A|-------------------???---|
E|-------------------------|

Вверх


Somebody To
Love (перевод)

ЛЮБИТЬ КОГО-ТО

Вступление: A E F#m Hm7 E
A           E       F#m
Утром с трудом поднимаюсь я,
Hm7         H       E
Чувствую, что нездоров;
A  E  F#m
Посмотрюсь в зеркало – Бог мой!
H                     E
За что ж ты со мной так суров?
F#m       C#      D
Всю жизнь я отчаянно верил в Тебя,
Hm7    H       E
Нет бы муки мои облегчить.
A      E F#m
О, Господи, Господи!
A      E    F#m  Hm7  E      A  E F#m Hm7 E
Пошли мне ту, которую смогу полюбить.

Каждый день (каждый день) я тружусь, как ишак,
Работаю я на излом,
И в конце (в конце дня) получаю пятак,
Доставшийся тяжким трудом.
А дома в слезах на колени встаю,
Начинаю я бога молить:

О, Господи, Господи!
Пошли мне ту, которую смогу полюбить.

D5
Каждый день)
D
Не сдаюсь – опять, опять, опять,
G
Но все хотят меня сломать,
Gm
Говорят, что чумовой,
H
Говорят, не все в порядке с головой.
Ничего не пойму,
E
И верить нельзя никому.

A E F#m Hm7 H E A E F#m H E F#m C# D Hm7 H7 H E

A       F#m
О, Господи, Господи!
A      E    F#m  Hm7  E      A  E F#m Hm7 E
Пошли мне ту, которую смогу полюбить.

Трясёт всего, как в лихорадке,
Чуть-чуть, и я с ритма собьюсь,
Но я в полном порядке (он в полном порядке),
С судьбой никогда не смирюсь,
И я вырвусь из плена – настанет день,
Мой дух никому не сломить.

A       F#m
Но Господи, Господи!
A      E    F#m  Hm7  E      A  E F#m Hm7 E
Пошли мне ту, которую смогу полюбить.

Вверх


Son And Daughter

The rythm is not regular at several places.
E|-------------------------------------------------------------|
B|-------------------------------------------------------------|
G|-------------------------------------------------------------|
D|---------------------------5-----------------------------5---|
A|-----------5---5-5-5-5-5h7-----7---------5---5---5-5-5h7---7-|
E|-0--0-0-x------------------------0-0-5/7---------------------|

E|-------------------------------------------------------------|
B|-------------------------------------------------------------|
G|-----------------------------------7-7-7-7-------------------|
D|---------------------5-5-5-5/7-7h9---------9p7-9p7-5b--------|
A|-7-7-----5-5-5-5-5h7----------------------------------7-7-7v-|
E|-----5/7-----------------------------------------------------|

E|-------------------------------------------------------------|
B|----------------------------------------12-------------------|
G|--------------------------9---9-9-11b13------13r11p9----9--/-|
D|-----------9-9-9-11---*-*----------------------------11------|
A|-/11-11-11---------------------------------------------------|
E|-------------------------------------------------------------|

E|--------------------------------------------------------|
B|--------------------------------------------------------|
G|---------------------______----12b----------------------|
D|-------12---12h13p12-121212h14-----14-14-14----------12-|
A|-12h14--------------------------------------12-12h14----|
E|--------------------------------------------------------|

E|------------------------------|
B|------------------------------|
G|-----------_______---12b------|
D|-12---12---121212h14-------14-|
A|------------------------------|
E|------------------------------|

E|--------------------------------------------|
B|--------------------------------------------|
G|----------------------------------12b-------|
D|-14----------12-12-12-12-12-12h14-----14----|
A|----12-12h14-----------------------------12-|
E|--------------------------------------------|

E|----------12-------------|
B|-------------15p12-------|
G|-12-14b16----------14b16-|
D|-------------------------|
A|-------------------------|
E|-------------------------|

E|----12------------------12-------------------------|
B|-12----15p12---------12----15p12-14p12-13p12-13p12-|
G|-------------14b16---------------------------------|
D|---------------------------------------------------|
A|---------------------------------------------------|
E|---------------------------------------------------|

E|--------------------------|
B|--------------------------|
G|-15p14p12----12h14p12-----|
D|----------14----------14p-|
A|--------------------------|
E|--------------------------|

E|----------------------------------------------------------|
B|----------------------------------------------------------|
G|-------------------------------12h14p12-------------------|
D|p12h14p12h14p12----12----12-------------14-12h14p12----12-|
A|----------------14----14----14----------------------14----|
E|----------------------------------------------------------|

E|----------------------------------------|
B|----------------------------------------|
G|----------------------------------------|
D|-14---12-14-12--------------------------|
A|---------------14-13-12-10------------x-|
E|---------------------------12-10v-----x-|

E|----------------------------_______-------|
B|-15b17v---15-12-15p12h15p12-15p12---------|
G|---------------------------------15p14p13-|
D|------------------------------------------|
A|------------------------------------------|
E|------------------------------------------|

E|-------|-----------------|----|------------------12-15-b17vv-|
B|-12-15-|-b17-b16-b17-b16-|----|-b17___0vvv----15-------------|
G|-------|-----------------|-0/-|------------------------------|
D|-------|-----------------|-/0-|------------------------------|
A|-------|-----------------|----|------------------------------|
E|-------|-----------------|15 X|------------------------------|

E|-15---12------------------------------------------------|
B|----------15--12--________------------------------------|
G|------------------15p14p12----14--12--------------------|
D|---------------------------14---------14-12-------------|
A|--------------------------------------------14-------14-|
E|-----------------------------------------------12-12----|

E|--------------------------|
B|--------------------------|
G|--------------------------|
D|---------------------12---|
A|----10h12p10h12/14-----14-|
E|-12-----------------------|

E|---------------------------------------------------|
B|---------------------------_________---------------|
G|--------------------------------12---12vv--2b3__r2-|
D|---------------------12----12h14--14---------------|
A|-----10h12p10h12/14-----14-------------------------|
E|-12------------------------------------------------|

E|------------------|
B|------------------|
G|-0----------------|
D|----2-0-----------|
A|--------2-1-0-----|
E|--------------3-0-|

Вверх


Spread Your Wings

D
Sammy was low

E7
Just watching the show

G        Gm     D
Over and over again

Knew it was time
Hed made up his mind
To leave his dead life behind

Bm
His boss said to him

Bm/A Bm/G#               ( Bm/A = x0443x ; Bm/G# = 4x44xx )
"Boy youd better begin

G                  A             D
To get those crazy notions right out of your head

Em7              C7
Sammy who do you think that you are?

D                   E       Gm             D
You shouldve been sweeping up the Emerald Bar"

D                     Bm
Spread your wings and fly away

E7         A                    ( E7=0x2132 or 07677x )
Fly away, far away

Spread your little wings and fly away
Fly away, far away

Gm
Pull yourself together

D
Cos you know you should do better

xx0330                  D
Thats because youre a free man

E|--------2-|
B|--------3-|
G|--0---0-2-|
D|-0---0--0-|
A|1--3------|
E|----------|

Bm                           Bm/A         Bm/G#
He spends his evenings alone in his hotel room
A                                F#sus4          F#
Keeping his thoughts to himself, hed be leaving soon

Wishing he was miles and miles away
Nothing in this world, nothing would make him stay

G A D xx0333 xx0434 E A

Since he was small
Had no luck at all
Nothing came easy to him
Now it was time
Hed made up his mind
"This could be my last chance"
His boss said to him, "Now listen boy!
Youre always dreaming
Youve got no real ambition, you wont get very far
Sammy boy, dont you know who you are?
Why cant you be happy at the Emerald Bar?"

So honey

Spread your wings and fly away
Fly away, far away
Spread your little wings and fly away
Fly away, far away
Pull yourself together
Cos you know you should do better
Thats because youre a free man

Вверх


Spread Your Wings

D
Sammy was low

E7
Just watching the show

G        Gm     D
Over and over again

Knew it was time
Hed made up his mind
To leave his dead life behind

Bm
His boss said to him

Bm/A Bm/G#               ( Bm/A = x0443x ; Bm/G# = 4x44xx )
"Boy youd better begin

G                  A             D
To get those crazy notions right out of your head

Em7              C7
Sammy who do you think that you are?

D                   E       Gm             D
You shouldve been sweeping up the Emerald Bar"

D                     Bm
Spread your wings and fly away

E7         A                    ( E7=0x2132 or 07677x )
Fly away, far away

Spread your little wings and fly away
Fly away, far away

Gm
Pull yourself together

D
Cos you know you should do better

xx0330                  D
Thats because youre a free man

E|--------2-|
B|--------3-|
G|--0---0-2-|
D|-0---0--0-|
A|1--3------|
E|----------|

Bm                           Bm/A         Bm/G#
He spends his evenings alone in his hotel room
A                                F#sus4          F#
Keeping his thoughts to himself, hed be leaving soon

Wishing he was miles and miles away
Nothing in this world, nothing would make him stay

G A D xx0333 xx0434 E A

Since he was small
Had no luck at all
Nothing came easy to him
Now it was time
Hed made up his mind
"This could be my last chance"
His boss said to him, "Now listen boy!
Youre always dreaming
Youve got no real ambition, you wont get very far
Sammy boy, dont you know who you are?
Why cant you be happy at the Emerald Bar?"

So honey

Spread your wings and fly away
Fly away, far away
Spread your little wings and fly away
Fly away, far away
Pull yourself together
Cos you know you should do better
Thats because youre a free man

Вверх


Stone Cold Crazy

Verse
Gm
Sleeping very soundly on a Saturday morning I was
Dreamiing I was Al Capone, Theres a
rumour goin round gotta clear outta town, Im
smelling like a dry fish-bone.

Here come the law gonna break down the door gonna
carry me away once more
Never! I never never wnat it anymore
Gotta get away from this stone cold floor

Chorus
C
Crazy
Bb
Stone cold crazy you know.

Gm		Bb
Gm		C
Gm		Bb
Gm		C

Repeat first part of verse with following words:

Rainy afternoon I gotta blow a typhoon
And Im playing on my slide trombone
Anymore, anymore cannot take it anymore
Gotta get away from this stone cold floor

Chorus

Walking down th street
Shooting people that I meet
With my rubber Tommy water gun
Here come the deputy
Hes gonna come and getta me
I gotta get up and run
They got the sirens loose
I ran right outa juice
Theyre gonna put me in a cell
If I cant go to heaven
Will they   let me go to hell?

Chorus

Вверх


Stone Cold Crazy
(2 вариант)

E|-----------------------------|
B|-----------------------------|
G|-----------------------------|
D|-----------------------------|
A|-F.B.------------------------|
E|---trem down/release 4 times-|

left and right guitars
E|---------------------------|
B|---------------------------|
G|--------3------------------|
D|--------3------------------|
A|--------1-----1333-2-3-4-5-|
E|-1333331--1333-------------|

left guitar
E|----|----|------------------------------|
B|----|----|------------------------------|
G|-0/-|-0/-|------------------------------|
D|-/0-|-/0-|--3555530---------------------|
A|----|----|---------1------1333-2-3-4-5--|
E|----|----|------------1333------------3-|
-----------/----------------/|right guitar

riff A
E|-------------------------------------------------------------|
B|-------------------------------------------------------------|
G|-----------------------------------------------3555-4-5-6-7--|
D|-3555530---------------------3555530-------3555------------5-|
A|--------1--------1333-2-3-4-5-------1--3535------------------|
E|-------------1333--------------------------------------------|

two guitars/riff B
E|--------------|
B|-5----5p3---5-|
G|-5----5p3---5-|
D|-5----5p3---5-|
A|-3----3-----3-|
E|--------------|

riff A

two guitars:
E|---------------------------------------------------|
B|---------------------------------------------------|
G|----------------------------------4--2-------------|
D|-5---7--8-9----------------------------4--2--1-----|
A|--------------2---2---2---2---2------------------2-|
E|---------------------------------------------------|

1-st solo:
E|-------------------------------------------------------------|
B|-10b12-12r10p7--------------------------------------------7b-|
G|---------------10p9p7-9-7-----(7)-(7)----------------9p7--7b-|
D|---------------------9---9-----7---7--------------7------9---|
A|---------------------------7h9---9---97-5-7p5-7/9--9---------|
E|-------------------------------------------------------------|

left and right guitars
E|------------------------------|
B|------------------------------|
G|--------3---------------------|
D|--------3---------------------|
A|--------1--------1333-2-3-4-5-|
E|-1333331-----1333-------------|

left guitar
E|----------------------------------|
B|----------------------------------|
G|--------3-------------------------|
D|--------3-------------------------|
A|--------1-----------1333-2-3-4-5--|
E|-1333331--------1333------------3-|
right guitar

E|-----------------------------------|
B|-----------------------------------|
G|--------3------------3555-4-5-6-7--|
D|--------3-----3--3555------------5-|
A|--------1--335--5------------------|
E|-1333331---------------------------|

left guitar
E|----------|---------------------|
B|------5---|-3-------------------|
G|------5---|-3-------------------|
D|------5---|-3-------------------|
A|..PM..----|-3---3p1-3p1---------|
E|-33333----|-------------3p1-3-3-|
right guitar

two guitars
E|----------|--------------------------------------------------|
B|----------|-3---4----4p2--4----4p2-4----4p2------------------|
G|----------|-3---4----4p2--4----4p2-4----4p2--4-2-------------|
D|  riff B  |-3---4----4p2--4----4p2-4----4p2------4---2--0----|
A|----------|-1---2----2----2----2---2----2------------------2-|
E|----------|--------------------------------------------------|

E|-------------|
B|-3---------5-|
G|-3---------5-|
D|-3---------5-|
A|-3---------3-|
E|-------------|

2-nd solo / 123"                      126"
E|-----------------------------------------------|
B|-----------------------------------------------|
G|-----------------------------------------------|
D|---------------------------79979--7------------|
A|-----0-0-0h2---5---5/9-9-------------9--7--5---|
E|-0h2-----------------------------------------7-|

>delay on
E|------------------------------------------------10b12-|
B|----------------------10b12-----12r10p7---------------|
G|-9b11---9b11r9---7---------------------10p9p79p7------|
D|------------------------------------------------------|
A|------------------------------------------------------|
E|------------------------------------------------------|

E|-12r10p7-------77------------------------------------------|
B|--------10b12----10b12r10p710p77---------------------------|
G|--------------------------------10p9p79p79b11--7-----------|
D|--------------------------------------------------9--7-----|
A|--------------------------------------------------------9/-|
E|-----------------------------------------------------------|

E|--------------------------------------------------|
B|--------------------------------------------------|
G|-12----12----13----13---14----15----16----17---18-|
D|---1412--1412--1513---13--1614--1715--1816---17---|
A|--------------------------------------------------|
E|--------------------------------------------------|

E|-----------------------------|
B|-------------------20b22__vv-|
G|---20---21---21--------------|
D|-18---19---19--20------------|
A|-----------------------------|
E|-----------------------------|

two guitars
E|---------|
B|---------|
G|---------|
D| riff A  |
A|-------3-|
E|---------|

right guitar/159"
E|------------|
B|------------|
G|------------|
D|------------|
A|------------|
E|-xxxxxx.....|

two gtrs.
E|----------------|
B|----------------|
G|----------------|
D|-5  riff B  -5--|
A|-5-----------5--|
E|-3-----------3--|

Вверх


Tenement Funster

E|-----0---------0---------0---------0---------0----|
B|----0-0-------1-1-------0-0-------1-1-------0-0---|
G|---0---0-----2---2-----0---0-----2---2-----0---0--|
D|--2-----2---2-----2---2-----2---2-----2---2-----0-|
A|-----------0-------------------0------------------|
E|-0-------------------0-------------------0--------|

E|-----3---------1---------0---------3----|
B|----0-0-------0-0-------1-1-------4-4---|
G|---0---0-----0---0-----0---0-----3---3--|
D|--0-----0---0-----0---2-----2---5-----5-|
A|---------------------3---------6--------|
E|-3---------3----------------------------|

E|-----2---------2---------2-------2-2-2-2-|
B|----3-3-------2-2-------1-1------1-1-1-1-|
G|---2---2-----2---2-----2---2-----2-2-2-2-|
D|--4-----4---4-----4---4-----0----0-0-0-0-|
A|-5---------4---------3-----------0-0-0-0-|
E|-----------------------------------------|

Вверх


Teo Torriatte

Piano (arr. for 2 guitars)

GTR 1
E|-2---2---2---2---|-3---3---3---3---|
B|-3---3---3---3---|-3---3---3---3---|
G|-2---2---2---2---|-3---3---3---3---|
D|---0---0---0---0-|---0---0---0---0-|
A|-----------------|-----------------|
E|-----------------|-----------------|

E|-2---2---2---2---|-3---3---0---0---|
B|-3---3---3---3---|-3---3---3---3---|
G|-2---2---2---2---|-3---3---?---?---|
D|---0---0---0---0-|---0---0---0---0-|
A|-----------------|-----------------|
E|-----------------|-----------------|

GTR 1
E|-0---0---0---0---|-0---0---0---0---|
B|-3---3---3---3---|-3---3---3---3---|
G|-2---2---2---2---|-2---2---2---3---|
D|---0---0---0---0-|---0---0---0---0-|

E|-1---1---1---1---|-6---6---6---6---|
B|-3---3---3---3---|-8---8---8---8---|
G|-2---2---2---2---|-7---7---7---7---|
D|---0---0---0---0-|---0---0---0---0-|

GTR 2
E|---------3-------|-----------------|-------------|----------|
B|-2/3-5-6---6-5-3-|-2---------------|-------------|----------|
G|-----------------|---3-2-----------|-When----Im-|-gone-...-|
D|-----------------|-------5-3-2-----|-------------|----------|
A|-----------------|-------------5-4-|-5-----------|----------|
E|-----------------|-----------------|-------------|----------|

And here goes chords Dm Gm Dm Gm ...........
be not gone Am and again this in the back

E|---------3-------|-----------------|
B|-2/3-5-6---6-5-3-|-2---------------|
G|-----------------|---3-2-----------|
D|-----------------|-------5-3-2-----|
A|-----------------|-------------5-4-|
E|-----------------|-----------------|

D                 D                 G                 D
E|-2---------------|-2---------------|-3-------------|-2----|
B|-3---------------|-3---------------|-3-------------|-3----|
G|-2---------------|-2---------------|-4-------------|-2----|
D|-0---------------|-0---------------|-5-------------|-0----|
A|-0---------------|-0---------------|-5-------------|-0----|
E|-----------------|-----------------|-3-------------|------|
Let us   cling  together as the     years     go     by

Outtro (better played with acoustic guitar)

E|-2---2--32----020|-x---x---0-x----0|-2-0-0-x-x---x---|-x-|
B|-3---3--33----222|-3---3-----3---3-|-3---3-3-3-2-2/3-|-3-|
G|-2---2--22----333|-0---0-----0-----|-2---2---2---2---|-2-|
D|---0---0---0-----|-0-0-0-0---0-0-0-|-0---0---2---2---|-0-|
A|-----------------|-2-2-2-2---2-2-2-|-0-------0---0---|-0-|
E|-----------------|-3---3-----3---3-|-----------------|---|

Вверх


The Fairy Fellers
Master-Stroke

Two short guitar solos
E|-------------------------------------------------------------|
B|-10111081018-----------101110810-1011108108------------------|
G|------------1091091097--------------------1091091097--910979-|
D|-------------------------------------------------------------|
A|-------------------------------------------------------------|
E|-------------------------------------------------------------|

Вверх


The Great Pretender

Intro:		G  C  G  C



G			C  D	    G		G7

Oh yes, Im the Great   	Pretender,

C			  G	  G7

Pretending Im doing well.

C		D	G		C   C #

My need is such, I pretend too much,

G	 C  D		G

Im lonely but no one can tell



G	    C   D   G	G7

Oh yes, Im the great pretender,

C				G	G7

Adrift in a world  of my own

C		D    G		  C   C #

I play the game, but to my real shame

G		C	D    G

Youve left me to dream all alone.



C				G

Too real is this feeling of make believe,

C				G		D

Too real when I feel what my heart cant conceal




G		      C  C  G	G7

Oh yes, Im the great pretender

C				    G	 G7

Just lauging and gay like a clown

C	   D		G	     C      C #

I seem to be, what Im not, you see,

G	     D		   Bmin   C   C #

Im wearing my heart like a crown,

G		C  D      G

Pretending that youre still around





C				G		D    D #

Too real when I fell what my heart cant conceal



(everything moves up 1/2 step)









G	#	      C # 	C # 	G #	G#7

Oh yes, Im the great 	pretender

C#				    G#	 G#7

Just lauging and gay like a clown

C#   D#		G#	     C #     C #

I seem to be, what Im not, you see,

G#	     D	#	   B#min   C#   D

Im wearing my heart like a crown,

G#		C#

Pretending that youre...

G#		C#		   G#

Pretending that yourre....	    still around...





Outro: G# - C# - D#

Вверх


The Invisible Man

E|-----------------------------------------------------------|
B|-----------------------------------------------------------|
G|-15b16-b17-b17-16-b19-17b19-17-b19-17-b19r-17-17b19-17-b19-|
D|-----------------------------------------------------------|
A|-----------------------------------------------------------|
E|-----------------------------------------------------------|

E|------------------|
B|------------------|
G|-17-b19-17-b19-17-|
D|------------------|
A|------------------|
E|------------------|

E|------------------------------------------------------|
B|-16-2020191817--------20--1817--------20x1817---------|
G|--------------20191817--(0)---20191817-------20191720-|
D|------------------------------------------------------|
A|------------------------------------------------------|
E|------------------------------------------------------|

E|-----------------|
B|20191817---------|
G|--------20191817-|
D|-----------------|
A|-----------------|
E|-----------------|

E|----------------------20191817---------------------|
B|20191917----------2019--------20191817191817-------|
G|--------2019181717--------------------------201917-|
D|---------------------------------------------------|
A|---------------------------------------------------|
E|---------------------------------------------------|

E|--------------------------------------------|
B|--------------------------------------20----|
G|------------------------17___/19b__21--1720-|
D|-2019171917--1717___/20---------------------|
A|-----------18-------------------------------|
E|--------------------------------------------|

E|----------------------------____-----------------------|
B|171817--172017--171817--17201817--171817--172017--1720-|
G|------20------20------20--------20------20------20-----|
D|-------------------------------------------------------|
A|-------------------------------------------------------|
E|-------------------------------------------------------|

E|------------------------------20---(1818)20191817---------|
B|-20b22vv--20191817-------------------------------20191817-|
G|------------------2019171917vv---17-----------------------|
D|----------------------------------------------------------|
A|----------------------------------------------------------|
E|----------------------------------------------------------|

E|---------|-20191817-----------------20191817..-|
B|---------|---------20191817--------------------|
G|20191817-|-----------------20191817------------|
D|---------|-------------------------------------|
A|---------|-------------------------------------|
E|---------|-------------------------------------|

Вверх


The March Of The Black
Queen

two guitar solos

137"
E|-------------------------------------------------------------|
B|-----------------------------------------------5-------------|
G|-7-b9-7-b9-7-9r7-5--b9-7-9r7-5-9r7-5-7-6-7-6-7---7-5-----4-5-|
D|-----------------------------------------------------7-7-----|
A|-------------------------------------------------------------|
E|-------------------------------------------------------------|

---3---  ---3---        ---4----
|---------------------------------------------------------|
|-12b13-13r12p10-12p10---10-------------------------------|
|---------------------12----12--10h12p10--10--------------|
|---------------------------------------12-----12--11--10-|
|---------------------------------------------------------|
|---------------------------------------------------------|

E|------------------|
B|------------------|
G|------------------|
D|-9--9-------------|
A|-----9---6--7-1-2-|
E|------------------|

56"
E|--------------------------------------------------------|
B|-8b10___- b10-b9-b10-b9-b10vv----b9-b10-b9-b10-b9-b10vv-|
G|--------------------------------------------------------|
D|--------------------------------------------------------|
A|--------------------------------------------------------|
E|--------------------------------------------------------|

E|-----------------------------------------------------|
B|-10r857-5--------------------------------------------|
G|-------7-875-5------------------7-5b-----------------|
D|------------7-757------5-5----57-7-----757575--------|
A|---------------------57-7--------------------5353----|
E|-------------------------------------------------535-|

Вверх


The Millionaire Waltz

1st solo
E|------------------------------------------------------------|
B|----------------------------------5-6----8-10-8-10-11-13-15-|
G|-13__12__10__5-----6h85-----7-------------10------------15--|
D|------------------------------------------------------------|
A|------------------------------------------------------------|
E|------------------------------------------------------------|

E|--------------------------------|
B|--------------------------------|
G|-15--------------------------13-|
D|------13---------------12-15----|
A|---------15-13-12-13------------|
E|--------------------------------|

E|--------------------------------------------|
B|------------13---13-------------------------|
G|--------------------15-14-15-12-------------|
D|------12-15---------------------13----------|
A|-*-13------------------------------15-13----|
E|-----------------------------------------15-|

2nd solo
E|------------------------------------------------------------|
B|-4--3434---3434/13-1313---11h13p11-9h11p9-8h9p8-6h8p6-------|
G|------------------------------------------------------8-5-6-|
D|------------------------------------------------------------|
A|------------------------------------------------------------|
E|------------------------------------------------------------|

E|-------------------------------------------|
B|-2--1212---1212/11-1111---9--8--6--5-------|
G|---------------------------------------5-6-|
D|-------------------------------------------|
A|-------------------------------------------|
E|-------------------------------------------|

E|--------------------------------------13b15-13-|
B|-4--3434---3434/13-1313---1413--131613---------|
G|------------------------------16---------------|
D|-----------------------------------------------|
A|-----------------------------------------------|
E|-----------------------------------------------|

Вверх


The Miracle

E|-17-16-17---b19vvr17p16-14-16--b17vvr16p14----------|
B|-------------------------------------------17-------|
G|----------------------------------------------16b18-|
D|----------------------------------------------------|
A|----------------------------------------------------|
E|----------------------------------------------------|

E|----------------------14-16-b17vv_r16-14-16-17--19--19b20vv-|
B|-------------17-14-17---------------------------------------|
G|-16-16-16b18------------------------------------------------|
D|------------------------------------------------------------|
A|------------------------------------------------------------|
E|------------------------------------------------------------|

E|19--17--15--17b19___r17p15-17-------------15--17--17b19-|
B|------------------------------17__---15-----------------|
G|--------------------------------------------------------|
D|--------------------------------------------------------|
A|--------------------------------------------------------|
E|--------------------------------------------------------|

E|-21b22---b22--21-|
B|-----------------|
G|-----------------|
D|-----------------|
A|-----------------|
E|-----------------|

E|-----------------------------------------------|
B|-12b14vvv-----------12b14___t15___p14r12p9-12v-|
G|-----------------------------------------------|
D|-----------x-x-8-x-----------------------------|
A|-----------x-x-x-10----------------------------|
E|-----------x-x-x-x-----------------------------|

E|-----------------------------------------|
B|-9---------------------------------------|
G|-x-9-11--11b_13_t14v---11b__13_r11p911p9-|
D|-----------------------------------------|
A|-----------------------------------------|
E|-----------------------------------------|

E|--------------------------------------------------|
B|-12b__14-t14p12t14p11t14p10t14p9------------------|
G|--------------------------------t14p12t14p11t14p9-|
D|--------------------------------------------------|
A|--------------------------------------------------|
E|--------------------------------------------------|

E|--------------------------------|
B|--------------------------------|
G|--------------------------------|
D|-t14p11t14p9t14-----------------|
A|---------------h11t14p10t14p9-7-|
E|--------------------------------|

E|-x--------x---------x---------x-x-------|
B|-16b18----x-18b19---x-19b21---x-x-20b21-|
G|-x--------x-----------x-------x-x-------|
D|----------------------------------------|
A|----------------------------------------|
E|----------------------------------------|

E|--------------------|
B|-18__12b14t15p14r12-|
G|--------------------|
D|--------------------|
A|--------------------|
E|--------------------|

E|------------------------------------|
B|-12b14t15p14r12p9-12b14_t15__pr12p9-|
G|------------------------------------|
D|------------------------------------|
A|------------------------------------|
E|------------------------------------|

E|-----------------------------------------|
B|-12b14t17__pr12p9h12b14_t18b_b19r18rp12v-|
G|-----------------------------------------|
D|-----------------------------------------|
A|-----------------------------------------|
E|-----------------------------------------|

E|------------------------------------|
B|-9----------------------------------|
G|---12-11-9--------------------------|
D|-----------11-9---------------------|
A|-----------------11-10-9-7---7------|
E|---------------------------9---9-7v-|

Вверх


The Night Comes Down

Chords:  C# = xx4121, C#7 = x4342x, Dmaj7 = xx0222

Intro:  Am  Em   D  C#  A    Dmaj7 / / / / / / /

Dmaj7      D7       G       D         G             C          D
When I was young it came to me, and I could see the sun breaking
Dmaj7    D7         G     Bm  Am        D           C#7      A7
Lucy was high, and so was I,  dazzling, holding the world inside
Dmaj     D7        G          Gm             D
Once I believed in everyone, everyone and anyone can see

[Chorus:]
G   A    D     G     D     Bm  F#m     G        F#m       D7
Oh   the night comes down, and I get afraid, of losing my way
G   A    D     G     D   F#m,G,F#m,Em7         A7
Oh the night comes down, Oh           and its dark again

Dmaj7

Once I could laugh with everyone,
once I could see the good in me
The black and the white distinctively, coloring, holding the
world inside
Now all the world is grey to me, nobody can see
(you gotta believe it)

[Chorus, ending:]

Em7        A7
and its dark again
Em7        A7         Em  (more ad-libbing,
and its dark again      blending into "Good King Rat")

Вверх


The Night Comes Down
(2 вариант)

|---|-------------------------------------------------------------------------|
|---|-------------------------------------------------------------------------|
|-9-|-------------------------------------------------------------------------|
|-9-|-------------------10-9-7----7------------------------10-9-7----7--------|
|-7-|---7-9-10-7-9----7--------10---9-10-7---7-9-10-7----7--------10---9-10-7-|
|-0-|-0------------10----------------------0----------10----------------------|

|-----------------------------------------------------------------------------|
|-----------------------------------------------------------------------------|
|------------------------------------------------------9----9-11-9-11-12-11-12|
|-----------------7------7-9----7-9-10-7-9-10-12-10-12---12-------------------|
|---7-9-10-7-9-10---9-10-----10-----------------------------------------------|
|-0---------------------------------------------------------------------------|

|-------------------------------------------------------------|
|----------12-------------------------------------------------|
|-14-12-14----14-12-------------------------------------------|
|-------------------14p12---12-14-14p12-----------------------|
|------------------------14------------14-12-10-12p10---10-12-|
|----------------------------------------------------12-------|

|----------|--------------|----|------------------------0---|
|----------|--------------|----|------------------------0---|
|----------|--------------|-0/-|------------------------0---|
|----------|--------------|-/0-|------------------------2---|
|-10-------|-10b-12----10-|----|-10b-12-7-5-------------2---|
|----12-12-|--------12----| 5X |------------7-6-5-3-0---0---|
-3-
|----0---0-----0---0-------0-----0-|---0-----0-----0-0--------0------0-|
|------7---7-----7-----8-7---8-7---|-----7-----7-----7---8-7---8---7---|
|-7----------7---------------------|-7-----7-----7-----------7---------|
|----------------------------------|-----------------------------------|
|----------------------------------|-----------------------------------|
|----------------------------------|-----------------------------------|

|------0--------0--------0---0---0---|-----0-------0-------0-----0-----|
|----7---8----7---8----7---8---7---8-|---8---8---7---8---7---8-----8-7-|
|------------------------------------|---------------------------------|
|-10-------10-------10---------------|-9-------9-------9-------9-------|
|------------------------------------|---------------------------------|
|------------------------------------|---------------------------------|

|------0--------0--------0---------0---|-0------------------------7-7---|
|----7---8----7---8----7---8-----7---8-|-7------------------------7-7---|
|--------------------------------------|-9------------------------7-7---|
|-10-------10-------10--------10-------|-10-----------------------9-9---|
|--------------------------------------|-0------------------------9-9---|
|--------------------------------------|--------------------------7-7---|

|left guitar
|-------------------------------|
|-5-------5--------7--6----5----|
|-------------7-----------------|
|-------------------------------|
|-------------------------------|
|-------------------------------|
|right guitar
|--------------------------------9----------------|
|-(12)b14-------14r12--10----12-----12b14--rb14---|
|-------------------------------------------------|
|-------------------------------------------------|
|-------------------------------------------------|
|-------------------------------------------------|
|midle guitar
|-------------------------------|
|-------------------------------|
|-7-------5---4----7--6----7----|
|-------------------------------|
|-------------------------------|
|-------------------------------|
|acoustic guitar
| Am D C# |---------------------|riff A
|         |-x-2---x-3----5---5--|
|         |-x-2---x-2----6---6--|
|         |-x-2---x(4)---5---5--|
|         |---------------------|
|         |---------------------|

acoustic guitar                   When I was..
|-5---5---5---5---5---5---5---5---5---5---5---5---3---3---2---2--|
|-7---7---7---7---7---7---7---7---7---7---7---7---3---3---3---3--|
|-6---6---6---6---6---6---6---6---6---6---5---5---4---4---2---2--|
|----------------------------------------------------------------|
|----------------------------------------------------------------|
|----------------------------------------------------------------|

|-3---3---0---0-0-0---3-3-----2---2h3---3---3/5-5---7---7---|
|-3---3---1---1-1-1---0-0-----3---------2---3-7-7---8---8p7-|
|-0---0---0---0-0-0---0-0-2---2---2h4-------4/6-6---7---7---|
|-0---0---0h2-2-2-2---0-0-0---------------------------------|
|-2---2---3---3-3-3-----------------------------------------|
|-3---3---3---3-3-3-----------------------------------------|

|-5---5---5---5---3---3--|
|-7---7---7---7---3---3--|
|-6---6---5---5---4---4--|
|------------------------|
|------------------------|
|------------------------|

riff A

|-5---5---5---5---3---3---0---0--|
|-7---7---7---7---3---3---3---3--|
|-6---6---5---5---4---4---3---3--|
|--------------------------------|
|--------------------------------|
|--------------------------------|

D Dmaj7 D7 G
G A D G D (C# B) fill 1
F#m G D Dmaj7 D7
G A D G D (C# B) fill 2
F# G F# Em

fill 1:
|left guitar
|----------------------|
|----------------------|
|----------------------|
|-7--------------------|
|-----9---4----5---5..|
|----------------------|
|right guitar
|---------------------------------------------|
|---------------------------------------------|
|---------------------------------------------|
|-fade in--16r14-12--7----9---9---7---7---7--|
|---------------------------------------------|
|---------------------------------------------|
|midle guitar
|----------------------|
|----------------------|
|----------------------|
|----------------------|
|----------------------|
|-fade in 10-9-7---2..|

fill 2:
|left guitar
|-----------------------------------|
|-----------------------------------|
|-----------------------------------|
|-----------------------------------|
|fade in-12--9---4-----5---4---2--|
|-----------------------------------|
|right guitar
|------------------------|
|------------------------|
|------------------------|
|-16r14-12-7---9--7--5--|
|------------------------|
|------------------------|
|midle guitar
|-------------------------|
|-------------------------|
|-------------------------|
|-------------------------|
|-------------------------|
|-10--7--2-----3--2--0--|

acoustic guitar
|-5---5---5---5---3---3---2---2--|
|-7---7---7---7---3---3---3---3--|
|-6---6---5---5---4---4---2---2--|
|--------------------------------|
|--------------------------------|
|--------------------------------|

G C

|--------------------------------|riff B
|---------3---3------------------|
|-2---2h4-2---0------------------|
|-----------------4-2-0---0-2-0--|
|--------------------------------|
|--------------------------------|

|-5---5---5---5---3---3--|
|-7---7---7---7---3---3--|
|-6---6---5---5---4---4--|
|------------------------|
|------------------------|
|------------------------|

Bm Am D C#

|-----------------------------|
|-x-/7---x-3---2h3-2---2---4--|
|-x------x--------------------|
|-x-/7---x-4---2h4-2---2---3--|
|-----------------------------|
|-----------------------------|

|-5---5---5---5---3---3---0---0--|
|-7---7---7---7---3---3---3---3--|
|-6---6---5---5---4---4---3---3--|
|-----------------------------3--|
|--------------------------------|
|--------------------------------|

riff B

G A D G D (C# B) fill 3
F#m G D Dmaj7 D7
G A D G D (C# B) fill 4
A Bm A G ? G ?
D (x x 9 7 x 10)

fill 3:
|left guitar
|--------------------|
|--------------------|
|--------------------|
|--------------------|
|-5---9--4---5---5..|
|--------------------|
|right guitar
|-----------------------------------------|
|-----------------------------------------|
|-----------------------------------------|
|-fade in-16r14-12--7-----9---9---7---7..|
|-----------------------------------------|
|-----------------------------------------|
|midle guitar
|------------------------------------|
|------------------------------------|
|------------------------------------|
|-6-6-8---8------10-85---5---6---6..|
|------------10----------------------|
|------------------------------------|

fill 4:
|left guitar
|----------------------------|
|----------------------------|
|----------------------------|
|-7--------------------------|
|-----9---4-----5---4---2---|
|----------------------------|
|right guitar
|-----------------------------|
|-----------------------------|
|-----------------------------|
|-16r14-12--7-----9---7---5--|
|-----------------------------|
|-----------------------------|

acoustic guitar
|-----------------------------------------------------------------------------|
|-----------------------------------------------------------------------------|
|-----------------------------------------------------------------------------|
|----------------------10-9-7----7--------------------------10-9-7----7-------|
..7-7-7-9-10-7-9----7--------10---9-10-7---7-9-10-7-9----7--------10---9-10-7-|
|----------------10----------------------0------------10----------------------|

|---------------------------------------------------------------------------|
|---------------------------------------------------------------------------|
|---------------------------------------------------------------------------|
|-------------------10-9-7----7------------------------7------7-9----7-9-10-|
|---7-9-10-7-9----7--------10---9-10-7---7-9-10-7-9-10---9-10-----10--------|
|-0------------10----------------------0------------------------------------|

|-----------------------------------------------------------------------|
|-----------------------------------------------------------------------|
|-----------------------------------------------------------------------|
|-12-9-10-12-9-10-12-10-12-9-10-9-9-10-12-9-12-/14-12-14-12-14-12-14-12-|
|-----------------------------------------------------------------------|
|-----------------------------------------------------------------------|

|-----------------------------------------------------------------------|
|-----------------------------------------------------------------------|
|-11h12h14p11h12p11-----------------------------------------------------|
|------------------14-h14p12--------------------------------------------|
|---------------------------14-12-10---12p10---10----7p5--5-------------|
|-------------------------------------------12----12----7---7-7-5-3-0---|

|---0-----0-------0-------------0-|---0-----0-----0---0-----0-----0-|
|-----7-----7---7-----8-7---8-7---|-----7-----7-----7---8-7---8-7---|
|-7-----7-----7-----------7-------|-7-----7-----7-------------------|
|---------------------------------|---------------------------------|
|---------------------------------|---------------------------------|
|---------------------------------|---------------------------------|

|-------------0--------0--------0-----|---0-------0-------0-------0-----|
|----8-7-8------8-7------8-7------8-7-|-----8-7-----8-7-----8-7-----8-7-|
|-------------------------------------|---------------------------------|
|-10-------10-------10-------10-------|-9-------9-------9-------9-------|
|-------------------------------------|---------------------------------|
|-------------------------------------|---------------------------------|

|----------0------0----0-----|
|------------8---------------|
|----------------------------|
|----...10-----10---10---10..|
|----------------------------|
|----------------------------|

Am Em

Вверх


The Prophets Song

all guitars are in drop D tuning

|------------1--------------------------------------1-----|
|--------1------3------------------------------1----------|
|--------3------2------------------------------3----------|
|--------3------0------------------------------3----------|
|---------------------------------------------------------|
|-0-------------------------------------------------------|
|             two guitars:                                |
|             guitar left >- 1 octave -> guitar right     |
|             |------------------13--------| |------13----|
|             |----------------------------| |-11---------|
|             |----------14-15--------15---| |-10---------|
|             |-12-14-15-------------------| |-12---------|
|             |----------------------------| |------------|
|             |----------------------------| |--  left  --|


|-----------1----------(gtr.l)--12-------1--------------|
|---------3---3----------------------1------------------|
|-------2-------2---------(gtr. r.)--3------------------|
|-----0-----------0---0---------12---3------------------|
|-------------------0---0---0---0-----------------------|
|-0-----------------------3---3-0-----------------------|


|-1-------0-----------------------------------5-----------|
|-3-------1-------3---------------1h3-3p1-3---8-----------|
|-2-------0-------3---0---2-------0h2-2p0-2---7-----------|
|-0-----------0---3-------0-------0-----------------------|
|-----------------1---1h3---------------------------------|
|-----0-----------------------0---------------------------|
|         right guitar                          | left guitar
|-----------------------1013------------0-----5-|-------------------------17-|
|---------------------11--15----------6---------|----------------15-17-18----|
|---------------------10--14--------------7-----|----------14-15-------------|
|---------------------12--15--------------------|-12-14-15-------------------|
|-----------------------------------------------|----------------------------|
|-----------------------------------------------|----------------------------|


|-1-------0---------------1-------------------------------0---|
|-3-------1-------1h3-3p1-3-------1h3-3p1-3---3p1-3-------1---|
|-2-------0-------0h2-2p0-2-------0h2-2p0-2---2p0-2-------0---|
|-0-----------0---0-------0-------0-------0---0---0-----------|
|-----------------0---------------0---------------------------|
|-----0-----------------------0-------------------------------|
|guitar right                                                 |
|-------------------------------------------------------------|
|-6-------5-------(h7)----6-------6---6p5-6---6p5-6---5---5---|
|-7-------5-------5h7-7p5-7-------7---7p5-7---7p5-7---5---5---|
|-7-------5-------5h7-7p5-7-------7-------7-------7---5---5---|
|-----5------5----5---5-----------------------------------3---|
|-----------------------------0-------------------------------|
|guitar left                                                  |
|-------------------------------------------------------------|
|---------6-------------------------------------------5---5---|
|---------7-------5h7-7p5-7-------5h7-7p5-7---7p5-7---5---5---|
|---------7-------5h7-7p5-7-------5h7-7p5-7---7p5-7---5---5---|
|---------------------------------------------------------3---|
|-----------------------------0-------------------------------|



|-1-------0---------------1-------------------0---|
|-1-------1-------3-------3-------1h3-3p1-3---3---|
|-2-------0-------3---0---2-------0h2-2p0-2---3---|
|-3-------2-------3-------0-------0---------------|
|-0-------3-------1---1h3-------------------------|
|-----------------------------0-------------------|
|guitar right
|-------------------------------------------------|
|-----------------3---3---3-------------------3---|
|-----------------3---3---2-------5h7-7p5-7---3---|
|-3-------5-------3---3---3-------5h7-7p5-7---3---|
|---------------------------------5-----------1---|
|-------------------------------------------------|
|guitar left
|-------------------------------------------------|
|-1-------5-------3---3---3-------------------3---|
|-2-------5-------3---3---2-------5h7-7p5-7---3---|
|-3-------5-------3---3---3-------5h7-7p5-7---3---|
|---------------------------------5---5-------1---|
|-------------------------------------------------|

only the rythm gtrs:

two gtrs
|--------------------------------------------------------|
|(2)--------------------------gtr.r.------gtr.l----------|
|-2---------------------------2-let ring--2-let ring-----|
|-2---------------------------2-----------2-------2---2--|
|-0---0---0---0---0---0---0---0---0---0---0---*----------|
|--------------------------------------------------------|
I   Dr. I   saw
|---------------------------------------------------------------|
|--------------------------------------------1------3-----------|
|-2-----------------------------------2------0------2---0---2---|
|-2-------5---3---2---3---5---2-------2------2------0---0---2---|
|-----0-0-----0---0---0---0---0-------0------3----------2---0---|
|---------------------------------------------------------------|

|-------------------------------------------------------------|
|---------------------------------------------------------3---|
|-2---------------7-----------7---9-----------9-------2---2---|
|-2---2---2---2---7---7---7---7---9---9---9---9-----2---------|
|-0---0---0---0---5---5---5---5---7---7---7---7---0-----------|
|-------------------------------------------------------------|

|-----------------------------------------------------------|
|----------------------------------------------3---3---3----|
|-2-----------------------9-----2------0------3---3---2----|
|-2---2---5---7---7---7---7-----2------2------0---0---0----|
|-0---0---0---0---0---0---0------0------3-------------------|
|-----------------------------------------------------------|
121"
|----------------------------------|
|----------------------------------|
|----------------------------------|
|-2-----------------------------7-|
|-0---1---2---3---4---5---6---7----|
|----------------------------------|

main riff:
|--------------------------------------------------------------|
|---------------------------------------------------------5----|
|---------5-----------7---5---7--------------75-7---5---5----|
|-----0---5-----------7---5---7--------------75-7---5---5----|
|-----0---3-----------5---3---5----------0---53-5---3---3----|
|-0-3---------0---*---------------0---3------------------------|

|--------------------------------------------------------------|
|--------------------------------------------------------------|
|----------5---------------2-----------------------------------|
|-3--------5-------3---3-3-0----------0---0---10----------------|
|-3--------3-------1---1-3------------0---0---8-----------------|
|-3-------------------------------0-3--------------9----------|

|--------------------------------------------------------------|
|--------------------------------------------------------------|
|---------5-----------7---5---7--------------75-7---5---5----|
|-----0---5-----------7---5---7--------------75-7---5---5----|
|-----0---3-----------5---3---5----------0---53-5---3---3----|
|-0-3---------0---*---------------0---3------------------------|

|--------------------------------------------------|
|--------------------------------------------------|
|----------5---------------2------------------7----|
|-3--------5-------3---3-3-0----------0---0---5----|
|-3--------3-------1---1-3------------0---0---5----|
|-3-------------------------------0-3---------5----|

|-------------------------|
|-------------------------|
|-/9----------------------|
|-/7-------2---2---2------|
|-/7-------0-x-0-x-0....--|
|------0------------------|
to be continued
...

|-----1-------------------------------1---------------------------------------|
|-1-------3--------------------------3-3--------------------------------------|
|-3-------2-------------------------2---2-------------------------------------|
|-3-------0-----------------------0------0--0------------2h3p2p0----0---------|
|-----------------------------------------0---0---0-------------3p0---3/5v----|
|-----------------------------0-----------------3---3-0---------------------0-|
|left gtr.
|---------22-18-17--------------------|
|------------------18-17--------------|
|------------------------19-15-14-----|
|---------------------------------12--|
|-------------------------------------|
|-------------------------------------|
|                         right gtr.
|                         |-----------|
|                         |-11-10-----|
|                         |-----------|
|                         |-------12--|
|                         |-----------|
|                         |-----------|


|-----------------1-------0-------5----------10---|
|-1---------------3-------1-------6---6-8---10----|
|-3---------------2-------0-------7--------10-----|
|-3---------------0-------0-------0---8-----------|
|-----------------------------------------12------|
|---------------------0-------0-------------------|
|two gtrs.: r.g. >1 octave> l.g.| left guitar     |
|-----------13--|               |------12----13---|
|------11-------|               |---11------15----|
|---------------|               |--10------14-----|
|---------------|               |-12--------------|
|---------------|               |-----------------|
|---------------|               |-----------------|


|-5-------3---------0---0-1---------1------------|
|-----6-------5---3---3---3--------3-3-----------|
|-----7-------5-------0---2-------2---2----------|
|-----7-------5-----------0------0-----0----<5>--|
|-5-------3-------1---3---------0-----------<5>--|
|------------------------------0--------0--------|


|-1-------0--------------12-13------6-------5-------3-----1-------0------3----|
|-3-------1-------3---11----10-------------------------1------0---------------|
|-2-------0-------3---10----10----------5-------5---------------------0-----0-|
|-0-----------0---3---12----10------5-------3-------2-----0-------------------|
|-----------------1------------12--------------------------------3------------|
|-----0-----------------------------------------------------------------------|
|                Left gtr.
|                |------12--13-|
|                |---11-----15-|
|                |--10------14-|
|                |-12----------|
|                |-------------|
|                |-------------|


|-----0-----------3--------0-----------0------<12>---|
|-6-----/-3---------------5-5--------5---------------|
|-------------0----------0---0-----0-----5----<12>---|
|-----------------------5-----5--5----------10-------|
|-5-----/-2------------3-------3---------------------|
|----------------------------------------------------|

Вверх


These Are The Days Of
Our Lives

Verse 1:

C			   F/C                C    F        Bb/F  F
Sometimes I get to feeling I was back in the old days long ago

C				      F/C
When we were kids, when we were young
C    F       Bb/F  F
things seemed so perfect, you know

C/G
The days were nedless, we were crazy we were young

G
The sun was always shining, we just lived for fun

Dm/A			Dm
Sometimes I feel like lately, I dont know

Am					G
The rest of my lifes been just a show

Chorus:

C     F/C  C   G/B  Am  G    F9
Those were the days of our lives

C        F/C   C   G/B   C   G   F9
The bad things in life were so few

C   F/C  C   G/B  Am  G Bb  Fsus2  Bb   F/A
Those days are all gone now, but     one thing is true

C/G         G          F
When I look, and I find I still love you

Verse 2:
You cant turn back the clock, you cant turn back the tide
Aint that a shame?
Id like to go back one time on a rollercoaster ride
When lifes just a game
No use in sitting and thinking on what you did
When you can lay back and enjoy it through your kids
Sometimes it seems like lately, I just dont know
Better sit back and go with the flow

Вверх


These Are The
Days Of Our Lives
(2 вариант)

guitar solo
E|------------------------------------------|
B|-----------________-----------------------|
G|--b14V-----14r12p10-9---7--7/9---10--9v---|
D|------------------------------------------|
A|------------------------------------------|
E|------------------------------------------|

E|-------------------------------------------------------|
B|-------------------------------------------------------|
G|-10h12----10--9----10--7-----9--7---7--9--10r9-7-9p75--|
D|-------------------------------------------------------|
A|-------------------------------------------------------|
E|-------------------------------------------------------|

E|--------------------------|
B|--------------------------|
G|---14p12-14b15r10----12---|
D|--------------------------|
A|--------------------------|
E|--------------------------|

E|----12b13v---13r12p10----10--------------------------|
B|-10-------------------13----13p10----10--------------|
G|----------------------------------12----12p109-10p9--|
D|-----------------------------------------------------|
A|-----------------------------------------------------|
E|-----------------------------------------------------|

E|-----------------|
B|-----------------|
G|-----------------|
D|-12p10-12/14___--|
A|-----------------|
E|-----------------|

E|----14b15v---15r14p12----12---------------------|
B|-12-------------------15----15p12----12---------|
G|----------------------------------14----14p1211-|
D|------------------------------------------------|
A|------------------------------------------------|
E|------------------------------------------------|

E|------------------|
B|--------------15--|
G|-12p11------------|
D|--------14p12-----|
A|------------------|
E|------------------|

E|----------------------------------------------------------|
B|-15/17-1513---12__108-10/12-------------------------------|
G|--------------------------------<12-12-12-12-12-12-12-12>-|
D|----------------------------------------------------------|
A|----------------------------------------------------------|
E|----------------------------------------------------------|

E|---------------------------|
B|-17r15brbrp13-12-13___/20--|
G|---------------------------|
D|---------------------------|
A|---------------------------|
E|---------------------------|

E|--------------------------------------------|
B|-20b22----20--18--17------------------------|
G|---------------------19--17--16-17-19-------|
D|--------------------------------------17----|
A|--------------------------------------------|
E|--------------------------------------------|

E|--------------20--19--17---------------------------------|
B|-20b22___rp18------------20-18-17------------------------|
G|----------------------------------19-17-16-17-19----17---|
D|-------------------------------------------------17------|
A|---------------------------------------------------------|
E|---------------------------------------------------------|

E|---------------------------------------------------|
B|-16b17---------------------------------------------|
G|--------17-15--------------------------------------|
D|--------------17-16-15-13b-------------------------|
A|---------------------------15-13-------------------|
E|---------------------------------15-14-12b13___----|

E|------------------------|
B|------------------------|
G|------------------------|
D|------10--12b13r-12p10--|
A|--12--------------------|
E|------------------------|

Вверх


The Show Must Go On

Ami     Asus2   Asus4   Ami       F      F5-
E|-0-0-0-0-0-0-0-0--0-0-0-0-0-0-0-0--1-1-1-1-1-1-1-1-|
B|-1-1-1-1-0-0-0-0--3-3-3-3-1-1-1-1--1-1-1-1-0-0-0-0-|
G|-2-2-2-2-2-2-2-2--2-2-2-2-2-2-2-2--2-2-2-2-2-2-2-2-|
D|-2-2-2-2-2-2-2-2--2-2-2-2-2-2-2-2--3-3-3-3-3-3-3-3-|
A|---------------------------------------------------|
E|---------------------------------------------------|

F6      F
E|-1-1-1-1-1-1-1-1-|
B|-3-3-3-3-1-1-1-1-|
G|-2-2-2-2-2-2-2-2-|
D|-3-3-3-3-3-3-3-3-|
A|-----------------|
E|-----------------|

Dmi7     Dmi6     Esus4   E        Dmi   Dmi5-
E|-1-1-1-1-1-1-1-1--0-0-0-0-0-0-0-0--1-----1--|
B|-3-3-3-3-0-0-0-0--0-0-0-0-0-0-0-0--3-----3--|
G|-2-2-2-2-2-2-2-2--2-2-2-2-1-1-1-1--2-----1--|
D|-0-0-0-0-0-0-0-0--2-2-2-2-2-2-2-2--0-----0--|
A|------------------2-2-2-2-2-2-2-2-----------|
E|------------------0-0-0-0-0-0-0-0-----------|

(Dmi5-)|Ami            | Ami                | F
Empty spaces what are we living for abandoned places I guess we
F             |Dmi7    Dmi6  |Esus4
know the score on and on does anybody
E          | Dmi
know what we are looking for
Dmi5-  |Ami         |Ami                      |F
another hero another mindless crime behind the curtain in the
F        |Dmi7        Dmi6  |Esus4
pantomime hold the line does anybody
E             |Dmi
want to take it any-more. The
|Ami |Ami                |F    |F     |Dmi7
show must go on      the show must go on       in-side my
Dmi6       |Esus4             E          |Dmi   Dmi5
heart is breaking my make-up may be flaking but my smile still

Ami      Ami          Hmi                   Hmi
stays on  Whatever  happens I?ll leave it all to chance another
G                 G
heartache another failed romance
Emi7     Emi6  F#sus4       F#
on and on does anybody know what
Emi  Emi5-          Hmi               |Hmi
we are living for    I guess I?m  learning I must be warmer now
G                 G             |Emi7        Emi6
I?ll soon be turning round the corner now out-side the dawn is
breaking
|F#sus4             F#        |Emi      Emi5- ||Dmi
but inside in the dark I?m aching to be free   The show must go
Ami   |Ami                 |F   |F   |Dmi7                 Dmi6
on        the show must go on      in-side my heart is breaking
|Esus4              E         |Dmi     Dmi5- |Ami     |Ami |F
my make-up may be flaking but my smile   still  stays on

F  Dmi7  Dmi6  Esus4 E Dmi  Dmi5-  Eb       F               Dmi
My soul is painted like the wings
of
Gmi   Eb            F              Dmi              Gmi
butterflies  fairytales of yesterday will grow but never die
G9          C                            Ami        Ami
I can fly___ my friends  The show must go on     the show must
go
F     F       Dmi7               Dmi6   Esus4          E   Dmi
on       I?ll face it with a grin  I?m  never giving in on  with
the

|Ami|Ami|F |F    |Dmi7            Dmi6       |Esus4
show          I?ll top the bill I?ll overkill I have to find the
E            |Dmi         |Dmi5-       |Dmi                |Ami
:|3x
will to carry on with the show         show   The show must go
on______
(on with the show)

Вверх


The Show Must
Go On (2
вариант)

E|---------------------------------|
B|-3-3-3-3-2-2-2-2-5-5-5-5-3-3-3-3-|
G|-4-4-4-4-4-4-4-4-4-4-4-4-4-4-4-4-|
D|-4-4-4-4-4-4-4-4-4-4-4-4-4-4-4-4-|
A|-2-----------------------------0-|
E|-------------------------------3-|

E|-----------------------------------------|
B|-3-3-3-3-2-2-2-2-5-5-5-5-3-3-3-3-3-3-3-3-|
G|-4-4-4-4-4-4-4-4-4-4-4-4-4-4-4-4-4-4-4-4-|
D|-5-5-5-5-5-5-5-5-5-5-5-5-5-5-5-5-5-5-5-5-|
A|-----------------------------------------|
E|-------------------------------0---------|

E|----------------------------------|
B|-2-2-2-2-2-2-2-2-2-2-2-2-0--------|
G|-4-4-4-4-4-4-4-4-3-3-3-3-0------3-|
D|-5-5-5-5-4-4-4-4-4-4-4-4-2--------|
A|----------------------------------|
E|--------2---------------0---------|

Второй куплет играется почти также, только все ноты на 1 тон
выше (2 лада на гитаре)

Проигрыш (My soul is painted like a wings of butterflies...)

e)-0------0---------------------0------0--------|
B)-0------1---0---1------3------0------1------3-|
G)-0------2-------2------4------0------2------2-|
D|---------------3------5-----------------------|
A|-------0----------------------------0---------|
E)-0----------3---1-------------0---------------|
My..           Fairy...      grow...       fly...

Кода  (With the show will go on...)

E|---------------------------------|
B|-5------3---2---5------3---2---3-|
G|-4--------------3--------------4-|
D|-5--------------5--------------5-|
A|---------------------------------|
E|---------------------------------|

Вверх


Tie Your Mother Down

A
Get your party gown
Get your pigtail down
Get your heart beatin? baby

G D C G
A
Got my timin? right
Got my act all tight
It?s gotta be tonight my little
G     G D C
Schoolbabe
G    E
Your mama says you don?t
And your Daddy says you won?t
And I?m boilin? up inside
G              A
Ain?t no way I?m gonna lose out this time

D
Tie your Mother down
Tie your Mother down
A
Lock your Daddy out of doors
I don?t need him nosing around
D
Tie your Mother down
Tie your Mother down
G   D    C   G   A
Give me all your love tonight

A
You?re such a dirty louse
Go get outta my house
G D C  G
That?s all I ever get from your...your
A
Family ties, in fact I don?t think I ever heard
A single little civil word
G D C G
from those guys
E
But you know I don?t give a light
I?m gonna make out all right
I?ve got a sweetheart hand
G
To put a stop to all that
A                   A G C A
Grousin? an? snipin?
D
Tie your Mother down
Tie your Mother down
A
Take your little brother swimmin?
With a brick (that?s all right)
D
Tie your Mother down,
Tie your Mother down
G    D     C    G   A
Or you ain?t no friend of mine

E
Your momma and your Daddy gonna
Plague me til I die
Why can?t they understand I?m just a
G                A  A G C A
Peace lovin? guy

D
Tie your Mother down
A
Tie your Mother down. . .etc etc. . .

Вверх


Too Much Love Will Kill
You

E|------------------------------------------------|
B|------------------------------------------------|
G|------------5---5------------2----2-------2---2-|
D|------------5---5------------2----2-------2---2-|
A|------------3---3------------0----0-------0---0-|
E|--------------------------------3-----------3---|

....we will rock you

E|------------------------------------------------------------|
B|--14---14h15----15p14-----14-14--15---14--15p14h15p14-------|
G|--14---14-------14--------14-14--14---14--14------------14--|
D|--14---14h16----16p14-----14-14--16---14--16p14h16p14---14--|
A|-(0)----------------------(0)---------------------------(0)-|
E|------------------------------------------------------------|

E|----17p15--14-----------------------------------------|
B|----------------17---15p14------15----15--15p14-------|
G|----------------------------14------------------16p14-|
D|----------------------------16------------------------|
A|------------------------------------------------------|
E|------------------------------------------------------|

E|------------------------------------------------------------|
B|-17--17-14---17b19--19r17---14-------------------14---14h15-|
G|---------------------------------16b18--r16p14---14---14----|
D|-------------------------------------------------14---14h16-|
A|-------------------------------------------------(0)--------|
E|------------------------------------------------------------|

E|----------------------------------------------------------|
B|---15p14----------14-----15p14--15p14--14-14-----15----14-|
G|---14-------------14-----14-----14-----14-14-----14----14-|
D|---16p14----------14-----16p14--16p14--14-14-----16----14-|
A|------------------(0)-------------------------------------|
E|----------------------------------------------------------|

Вверх


Was It All Worth It

E|--------5-----8p5-----5h8p5-------------trem----------|
B|----------8p5-----8p5---------5---------0-------------|
G|-8b10-----------------------8---8-7-5v--0---7---5p4-5-|
D|------------------------------------------------------|
A|------------------------------------------------------|
E|------------------------------------------------------|

E|---------------------------12-----------------------------|
B|-15b17__r15p13-15----13-15----15-13-12-13----________-----|
G|------------------------------------------14-12h14p12-14v-|
D|----------------------------------------------------------|
A|----------------------------------------------------------|
E|----------------------------------------------------------|

E|------------------/17-|
B|-5--------------------|
G|---8-5-7-5--------/17-|
D|-----------7-5-7------|
A|----------------------|
E|----------------------|

E|-------13--------------1417p14------------15------|
B|-----13--16b18-------15-------15--------15--18b20-|
G|---14--------------14-----------14----16----------|
D|-15--------------16---------------1617------------|
A|--------------------------------------------------|
E|--------------------------------------------------|
_________
E|-------16--19p16---------------19b21----19b21---19vv-|
B|-----17--17-----17--------17-(20)--------------------|
G|---16-------------16----18---------------------------|
D|-18-----------------1819----19-----------------------|
A|-----------------------------------------------------|
E|-----------------------------------------------------|

Вверх


We Are The Champions

Dm (V)
E|--------6--5--6-------5----5-|
B|-----7-----------7----5----5-|
G|--7-------------------5----5-|
D|----------------------0------|
A|---------------------------5-|
E|-----------------------------|

Riff-2:
E|-------1--5--1-----6---------------------5--------8--6-------|
B|----------------1-----6---------------6-----6-----------6--6-|
G|----5--------------------5--5------5-----------5-------------|
D|-3------------------------------3----------------------------|
A|-------------------------------------------------------------|
E|-------------------------------------------------------------|

E|------------------------------------------------------------|
B|------------------------------------------------------------|
G|----------------------------0-------0------0-------0------2-|
D|--3------2------0-----------------------------------------0-|
A|----------------------------3-------3------3-------3--------|
E|-----------------------3------------------------------------|

Riff-3:
E|------------------------2------|
B|---------3--------------3------|
G|---------4--------------4------|
D|---------5---------------------|
A|--------------0--2-----------2-|
E|--3----------------------------|

E|---------3--------------------------------------------2------|
B|---------5-------------3---------------3--------------3------|
G|---------4------5------2---------------4--------------4------|
D|--2-------------5------0---------------5---------------------|
A|----------------3---------------------------0--2-----------2-|
E|--------------------------------3----------------------------|

E|---------3-------------------------------------------------|
B|---------5---------------0--0------------------------------|
G|---------5-------------------------------------------------|
D|-------------------------3--2------2-----------------------|
A|--3------3--2--0-------------------0------2----3--2------0-|
E|------------------4----------------------------------------|

E|-------------------------------------------------------------|
B|--1------0----1--0--------------0-----------1--0-----------0-|
G|--0---------------------2--------------0--------------0------|
D|-------------------------------------------------------------|
A|--3----------------------------------------------------------|
E|-------------------------------------------------------------|

E|---------------------------------3-3-3-|
B|--------------1------------------6-6-6-|
G|--3------0-------3------0--------5-5-5-|
D|---------------------------------0-0-0-|
A|---------------------------------------|
E|---------------------------------------|

Riff -4:
E|------------------3------------------------------------------|
B|---------3-----------3-----3-------------------3-------------|
G|---0-3-0----3--0--------3-----3--0----0--3--0-----3--0--3--3-|
D|-0------------------------------------------------------3--5-|
A|--------------------------------------------------------5--5-|
E|-------------------------------------------------------------|

E|------------------------------------------1--5--1----------5-|
B|--------------3--------1--1------------3-----------3--3------|
G|-----0--3--0-----3--0--0--0---------2------------------------|
D|-0---------------------0--0-----0----------------------------|
A|-------------------------------------------------------------|
E|-------------------------------------------------------------|

E|--------1--5--1-----0-----5-----------1--5--1-----0-----3-|
B|-----3-----------3-----1-----------3-----------3-----1----|
G|--2-----------------------------2-------------------------|
D|----------------------------------------------------------|
A|----------------------------------------------------------|
E|----------------------------------------------------------|

E|--------1--5--1-----0---------------1----5----6-------|
B|-----3-----------3-----1-------------------------6----|
G|--2-----------------------2-------------------------5-|
D|--------------------------------3---------------------|
A|------------------------------------------------------|
E|------------------------------------------------------|

E|---------8--6------------------------------------------------|
B|-----1---------6---------------------------------------------|
G|-------------------------------------------------------------|
D|-3-------------------3----2----0---------------------------0-|
A|-----------------------------------------3----3----3---3-----|
E|------------------------------------3------------------------|

Повторить Riff -3.

Riff -5:
E|------------------------2------|
B|---------3--------------3------|
G|---------4--------------4------|
D|---------5---------------------|
A|--------------0--2-----------2-|
E|--3----------------------------|

E|---------3---------------------------------------------2-|
B|---------5-------------3--3------------3---------------3-|
G|---------4-----5--5----2--2------------4---------------4-|
D|--2------------5--5----0--0------------5-----------------|
A|---------------3--3--------------------------0--2------2-|
E|--------------------------------3------3--3--------------|

E|---------------------------------------------------------|
B|-------------------------0-------------------------------|
G|----------------------------2----------------------------|
D|-------------------3--2----------2-----------------------|
A|--3-----2--0---------------------0------2----3--2------0-|
E|--------------4------------------------------------------|

E|---------------------------------------------------------|
B|--1-----0----1--0------------0----------1--0-----------0-|
G|--0--------------------2-----------0--------------0------|
D|---------------------------------------------------------|
A|--3------------------------------------------------------|
E|---------------------------------------------------------|

E|------------------------------3-3-3-|
B|-------------1----------------6-6-6-|
G|--3-----0-------3------0------5-5-5-|
D|------------------------------0-0-0-|
A|------------------------------------|
E|------------------------------------|

Текст:

I've paid my dues
Time after time
I've done my sentence
But committed no crime
And bad mistakes
I've made a few
I've had my share of sand
Kicked in my face
But I've come through
And I need to go on and on and on and on

We are the champions - my friend
And we'll keep on fighting till the end
We are the champions
We are the champions
No time for losers
Cause we are the champions of the world

I've taken my bows
And my curtain calls
You've bought me fame and fortune
And everything that goes with it
I thank you all
But it's been no bed of roses no pleasure cruise
I consider it a challenge before the whole human race
And I ain't gonna lose
And I need to go on and on and on and on

We are the champions - my friend
And we'll keep on fighting till the end
We are the champions
We are the champions
No time for losers
'Cause we are the champions of the world

We are the champions - my friend
And we'll keep on fighting till the end
We are the champions
We are the champions
No time for losers
Cause we are the champions

Вверх


We Will Rock You

E|------------------------------------------------|
B|------------------------------------------------|
G|------------5---5------------2----2-------2---2-|
D|------------5---5------------2----2-------2---2-|
A|------------3---3------------0----0-------0---0-|
E|--------------------------------3-----------3---|

....we will rock you

E|------------------------------------------------------------|
B|-14---14h15----15p14------14-14--15---14--15p14h15p14-------|
G|-14---14-------14---------14-14--14---14--14------------14--|
D|-14---14h16----16p14------14-14--16---14--16p14h16p14---14--|
A|(0)-----------------------(0)---------------------------(0)-|
E|------------------------------------------------------------|

E|----17p15--14-----------------------------------------|
B|----------------17---15p14------15----15--15p14-------|
G|----------------------------14------------------16p14-|
D|----------------------------16------------------------|
A|------------------------------------------------------|
E|------------------------------------------------------|

E|------------------------------------------------------------|
B|-17--17-14---17b19--19r17---14-------------------14---14h15-|
G|---------------------------------16b18--r16p14---14---14----|
D|-------------------------------------------------14---14h16-|
A|-------------------------------------------------(0)--------|
E|------------------------------------------------------------|

E|----------------------------------------------------------|
B|---15p14----------14-----15p14--15p14--14-14-----15----14-|
G|---14-------------14-----14-----14-----14-14-----14----14-|
D|---16p14----------14-----16p14--16p14--14-14-----16----14-|
A|------------------(0)-------------------------------------|
E|----------------------------------------------------------|

Вверх


White Queen

|--------5-----8p5-----5h8p5-------------trem--------------|
|----------8p5-----8p5---------5---------0---------------|
|-8b10-----------------------8---8-7-5v--0---7---5p4-5---|
|----------------------------------------------------------|
|----------------------------------------------------------|
|----------------------------------------------------------|

|---------------------------12------------------------------|
|-15b17__r15p13-15----13-15----15-13-12-13----________------|
|------------------------------------------14-12h14p12-14v--|
|-----------------------------------------------------------|
|-----------------------------------------------------------|
|-----------------------------------------------------------|

|------------------/17-|
|-5--------------------|
|---8-5-7-5--------/17-|
|-----------7-5-7------|
|----------------------|
|----------------------|

|-------13--------------1417p14------------15-------|
|-----13--16b18-------15-------15--------15--18b20--|
|---14--------------14-----------14----16-----------|
|-15--------------16---------------1617-------------|
|---------------------------------------------------|
|---------------------------------------------------|
_________
|-------16--19p16---------------19b21----19b21---19vv---|
|-----17--17-----17--------17-(20)----------------------|
|---16-------------16----18-----------------------------|
|-18-----------------1819----19-------------------------|
|-------------------------------------------------------|
|-------------------------------------------------------|

Вверх


Who Needs You

|--------5-----8p5-----5h8p5-------------trem--------------|
|----------8p5-----8p5---------5---------0---------------|
|-8b10-----------------------8---8-7-5v--0---7---5p4-5---|
|----------------------------------------------------------|
|----------------------------------------------------------|
|----------------------------------------------------------|

|---------------------------12------------------------------|
|-15b17__r15p13-15----13-15----15-13-12-13----________------|
|------------------------------------------14-12h14p12-14v--|
|-----------------------------------------------------------|
|-----------------------------------------------------------|
|-----------------------------------------------------------|

|------------------/17-|
|-5--------------------|
|---8-5-7-5--------/17-|
|-----------7-5-7------|
|----------------------|
|----------------------|

|-------13--------------1417p14------------15-------|
|-----13--16b18-------15-------15--------15--18b20--|
|---14--------------14-----------14----16-----------|
|-15--------------16---------------1617-------------|
|---------------------------------------------------|
|---------------------------------------------------|
_________
|-------16--19p16---------------19b21----19b21---19vv---|
|-----17--17-----17--------17-(20)----------------------|
|---16-------------16----18-----------------------------|
|-18-----------------1819----19-------------------------|
|-------------------------------------------------------|
|-------------------------------------------------------|

Вверх


Who Wants To Live
Forever

Guitar 1:

E|-------------|
B|-------------|
G|-4/54--2--4~-|
D|-------------|
A|-------------|
E|-------------|

Guitar 2:
E|------------------------------------------------------------|
B|------------------------------------------------------------|
G|-12~--11---9~-----12~---11---9~----11h12-12--11h12-12/14-16-|
D|---------9-----------------9--------------------------------|
A|------------------------------------------------------------|
E|------------------------------------------------------------|

E|------------------------------------------------------------|
B|------------------------------------------------------------|
G|---9-11-11b12-b12 b12--9------------------------------------|
D|-9-----------------------12--14~-12----------------------10-|
A|------------------------------------14-12--12------------10-|
E|----------------------------------------------15--14-12--8--|

Guitar 1 repeats itself when it can be bothered throughout.

Most of the vibratos are to keep your fingers happy throughout,
except for the one on fret 14 in the fast bit.

Guitar 2 does this next bit when he repeats the chorus twice,
at some point, still with fuzz/ distortion/ whatever. For
those of you who really wanted to know:

E|-11b12-11-9----------|
B|------------12-10----|
G|------------------12-|
D|---------------------|
A|---------------------|
E|---------------------|

Have fun...

Вверх


Who Wants To
Live Forever (2
вариант)

Am
Theres no time for us
Em
Theres no place for us
C          G         A
What is this thing that fills our dreams
C         D
Yet slips away from us?

Am
Theres no chance for us
Em
Its all decided for us
C    G         A
This world has only one sweet moment
C        D
Set aside for us.

C        G       Am
Who wants to live forever?
C        G       Am
Who wants to live forever
C    D
Oh_______ when love must die?




C
Touch my tears
Em
With your lips
C
Touch my world
Em
With your fingertips
G      D    Em
And we can have forever
G      D    Em
And we can love forever
D   Em
Forever....
D   Em
Forever....
D	      Bb
Forever... is our today.

C        G       Am
Who wants to live forever?
C        G       Am
Who wants to love forever?
C        Bm      Am7
Who dares to love forever?
D     Bb
Oh________
Em
Who waits forever anyway?

Вверх


You And I

solo
E|-------------------------------------------------------------|
B|-------------------------------------------------------------|
G|-----------------7-9b11---------------------------______-----|
D|-----___---7---9--------------------------7-9b11--9b10r9---7-|
A|-5---7/9------------------------___--7--9--------------------|
E|------------------------9-9-5---7/9--------------------------|

E|-------------------------------------------------------------|
B|--------------------------7-10b12-10-9-----------------------|
G|--------------------6/7-9--------------10-7-------9b11____r9-|
D|------------7---9---------------------------9-6--------------|
A|------7--9---------------------------------------------------|
E|-7-10--------------------------------------------------------|

E|-------7-----------------------------------------------------|
B|-10b12---10--------------------------------------------------|
G|------------9b11-7-------------------------------------7---9-|
D|-------------------9-7-------------------7__5---7/9----------|
A|-----------------------8b--5--___--7--9-------5--------------|
E|------------------------------7/9----------------------------|

E|------------------------------|
B|---------------------------5--|
G|-10r9__b11-11r9p7---7___5-5h6-|
D|------------------9-----------|
A|------------------------------|
E|------------------------------|

Вверх


Youre My Best Friend

F/C              C          F/C                 C
Ooo, you make me live.  Whatever this world can give to me

F/C               C     F/C              C
Its you, youre all I see.  Ooo, you make me live now honey

F/C              C    G/B    Am
Ooo, you make me live


D                F      G
Youre the best friend that I ever had

C         G/B        Am
Ive been with you such a long time

D              F           G
Youre my sunshine and I want you to know

E            Am       D          F    Fm7
That my feelings are true.  I really love you

C
Youre my best friend


F/C              C    G/B
Ooo, you make me live

Am        C/G         F                  Fm7
Ive been wandering round but I still come back to you

G       E            Am          D
In rain or shine youve stood by me girl

C/G             G                C
Im happy, happy at home.  Youre my best friend


Ooo, you make me live
Whenever this world is cruel to me
I got you to help me forgive
Ooo, you make me live now honey
Ooo, you make me live

Youre the first one
When things turn out bad
You know Ill never be lonely
Youre my only one
And I love
The things that you do
Youre my best friend

Ooo, you make me live

Im happy, happy at home
Youre my best friend
Youre my best friend
Ooo, you make me live
You, youre my best friend

Вверх