Rainbow

Catch The Rainbow
Man On The Silver Mountain
May Be Next Time
May Be Next Time
Rainbow Eyes
Since Youve Been Gone
Temple Of The King
Вверх

Catch The Rainbow

Electric Guitar 1

E||------------------------|--------0----------0---------|
B||------------------------|--------0--------0---0-------|
G||------------------------|--------0------4-------4p2-0-|
D||----------0-2-----0-----|--------0--------------------|
A||--------------0-2-------|-----2-----------------------|
E||---------------------3/-|--0--------------------------|

-----------3h----------------|-------5--------------------|
-----------3-5p3----0h1p0----|-------5--------------------|
--0--------------5--------0--|-------5--------5-7-5-7-5-7-|
-----------------------------|--7-------------5-7-5-7-5-7-|
-----------------------------|------------5h7-------------|
-----------------------------|----------------------------|

--------7----------0-------|--------------------------|
--------8--------0---0---0-|--------------------------|
--------7------4-------4---|----------------5-7-5-----|
--------9------------------|-------------5--5h7-5-----|
--------7------------------|--3------5-7-----------7--|
--0--7---------------------|--------------------------|

--5--8--10--8--10-8-5--5----|---------------------5-7-5-7-|--------------------|
--5--8--10--8--10-8-5--5----|---------------------5-7-5-7-|--8-----------------|
----------------------------|----7-9-7-9-7-9-7------------|--9-----------------|
----------------------------|----7-9-7-9-7-9--------------|--10----------------|
----------------------------|-----------------------------|--------------------|
----------------------------|-----------------------------|--------------------|

-------------------|----------3-----------------|-------------------|
----------3--------|----------3h5p3----0h1p0----|-------------------|
----------0--------|----------------5--------0--|-------------------|
----------2--------|----------------------------|----------2--------|
----------2--------|----------------------------|-------------------|
----------0--------|----------------------------|-------------------|

-----------------------|--------------------|------------------|
-----------------------|--5--------7--------|------------------|
------7-9-7-9-7--------|--5--------7--------|------------------|
------7-9-7-9-7--------|--5--------7--------|------------------|
-----------------------|--------------------|------------------|
-----------------------|--------------------|------------------|

----------3--------------|-------------------|-----------------------|
----------3h5p3----0-----|-------------------|-----------------------|
----------------5-----0--|--2----------------|----------7-9-7-9-7----|
-------------------------|-------------------|----------7-9-7-9-7----|
-------------------------|-------------------|-----------------------|
-------------------------|-------------------|-----------------------|

------------12--------|------------------|------------------|------------------|
------------12--------|------------------|------------------|------------------|
--7-9-------12--------|------------------|------------------|------------------|
--7-9-----------------|------------------|------------------|------------------|
----------------------|------------------|------------------|------------------|
----------------------|------------------|------------------|------------------|
------------------0------|----------------------|------------------|
------8-7-8-7-8-7--------|------5--8--10--------|------------------|
-------------------------|----------------------|------------------|
-------------------------|----------------------|------------------|
-------------------------|----------------------|------------------|
-------------------------|----------------------|------------------|

------------------|------------------|------------------|------------------|
------------------|------------------|------------------|------------------|
------------------|------------------|------------------|------------------|
------------------|------------------|------------------|------------------|
------------------|------------------|------------------|------------------|
------------------|------------------|------------------|------------------|

------------------|------------------|------------------|------------------|
------------------|------------------|------------------|------------------|
------------------|------------------|------------------|------------------|
------------------|------------------|------------------|------------------|
------------------|------------------|------------------|------------------|
------------------|------------------|------------------|------------------|

------------------3--|----------------------|----------------------|
---------------3-----|--5----------3--------|----------------------|
------------4--------|----------------4-2---|--4----------4--2--0--|
---------------------|----------------------|----------------------|
---------------------|----------------------|----------------------|
---------------------|----------------------|----------------------|

-------------------------|---------------------3--|-----------------------|
-------------------------|------------------3-----|--5----------3---------|
--2----------4-2-4-2-4-2-|--4-2-0-----------------|----------------4-2-0--|
-------------------------|---------2/-------------|-----------------------|
-------------------------|------------------------|-----------------------|
-------------------------|------------------------|-----------------------|

----------------------|-------5------7--5--3--|---------------------|
----------------------|-----------------------|--5------------5--7--|
--4----------4--2--0--|--2/-------------------|---------------------|
----------------------|-----------------------|---------------------|
----------------------|-----------------------|---------------------|
----------------------|-----------------------|---------------------|

-------------5--7--10--|--12~---------14--15--17--|--12----7~-----------10--|
--8~-------------------|--------------------------|-----------------10------|
-----------------------|--------------------------|-------------------------|
-----------------------|--------------------------|-------------------------|
-----------------------|--------------------------|-------------------------|
-----------------------|--------------------------|-------------------------|

--12~-----------------|------------------|------------------|------------------|
------------12~-------|------------------|------------------|------------------|
----------------------|------------------|------------------|------------------|
----------------------|------------------|------------------|------------------|
----------------------|------------------|------------------|------------------|
----------------------|------------------|------------------|------------------|

------------------0------|----------------------|------------------|
------8-7-8-7-8-7--------|------5--8--10--------|------------------|
-------------------------|----------------------|------------------|
-------------------------|----------------------|------------------|
-------------------------|----------------------|------------------|
-------------------------|----------------------|------------------|

------------------|------------------|------------------|------------------|
------------------|------------------|------------------|------------------|
------------------|------------------|------------------|------------------|
------------------|------------------|------------------|------------------|
------------------|------------------|------------------|------------------|
------------------|------------------|------------------|------------------|

------------------|------------------|------------------|------------------|
------------------|------------------|------------------|------------------|
------------------|------------------|------------------|------------------|
------------------|------------------|------------------|------------------|
------------------|------------------|------------------|------------------|
------------------|------------------|------------------|------------------|

------------------|------------------|------------------------|
------------------|------------------|--5--------5--7--8--10--|
------------------|------------------|------------------------|
------------------|------------------|------------------------|
------------------|------------------|------------------------|
------------------|------------------|------------------------|

----------------------|------------------|------------------|
--12----10~-----------|------------------|------------------|
----------------------|------------------|------------------|
----------------------|------------------|------------------|
----------------------|------------------|------------------|
----------------------|------------------|------------------|

------------------------|---------------------|------------------|
--5--------5--7--8--10--|--12----5~-----------|------------------|
------------------------|---------------------|------------------|
------------------------|---------------------|------------------|
------------------------|---------------------|------------------|
------------------------|---------------------|------------------|

------------------|------------------------|---------------------|
------------------|--5--------5--7--8--10--|--12----5~-----------|
------------------|------------------------|---------------------|
------------------|------------------------|---------------------|
------------------|------------------------|---------------------|
------------------|------------------------|---------------------|

----------------------|--------------------|------------------------|
--8----------7--5--3--|--5------------3----|--5--------5--7--8--10--|
----------------------|--------------------|------------------------|
----------------------|--------------------|------------------------|
----------------------|--------------------|------------------------|
----------------------|--------------------|------------------------|

------------------------|--------------------------|--------------------|
--12----5--------8--10--|--10--12----------10--12--|--8~-----------6----|
------------------------|--------------------------|--------------------|
------------------------|--------------------------|--------------------|
------------------------|--------------------------|--------------------|
------------------------|--------------------------|--------------------|

------------------------|-----------------7--10--|--12----12~-------14--15--|
--5--------5--7--8--10--|--12----5---------------|--------------------------|
------------------------|------------------------|--------------------------|
------------------------|------------------------|--------------------------|
------------------------|------------------------|--------------------------|
------------------------|------------------------|--------------------------|

--15~-------14--15--14-15-14-15-|--0----------------------|
--------------------------------|--17--------5--7--8--10--|
--------------------------------|-------------------------|
--------------------------------|-------------------------|
--------------------------------|-------------------------|
--------------------------------|-------------------------|

---------------------|-------------------------|--8--------8--7--8--10--|
--12----5------------|--12--------11--8--7--8--|------------------------|
---------------------|-------------------------|------------------------|
---------------------|-------------------------|------------------------|
---------------------|-------------------------|------------------------|
---------------------|-------------------------|------------------------|

--0----------------------|---------------------|--12------14--15~-------|
--17--------5--7--8--10--|--12----5------------|------------------------|
-------------------------|---------------------|------------------------|
-------------------------|---------------------|------------------------|
-------------------------|---------------------|------------------------|
-------------------------|---------------------|------------------------|

--15~-------13--14--15--17--|--0----------------------|---------------------|
----------------------------|--17--------5--7--8--10--|--12----5------------|
----------------------------|-------------------------|---------------------|
----------------------------|-------------------------|---------------------|
----------------------------|-------------------------|---------------------|
----------------------------|-------------------------|---------------------|

--12------10--8--7--5--7--|--8~-------7--5--3--5--|------------------------|
--------------------------|-----------------------|--5--------5--7--8--10--|
--------------------------|-----------------------|------------------------|
--------------------------|-----------------------|------------------------|
--------------------------|-----------------------|------------------------|
--------------------------|-----------------------|------------------------|

---------------------|--12~-----11--12--11--12--11--|--8--------7--8--10----|
--12----5------------|------------------------------|-----------------------|
---------------------|------------------------------|-----------------------|
---------------------|------------------------------|-----------------------|
---------------------|------------------------------|-----------------------|
---------------------|------------------------------|-----------------------|

--0----------------------|---------------------12----|--15--------15---------|
--12--------5--7--8--10--|--12----5--------12-----12-|--------------------4--|
-------------------------|---------------------------|-----------------------|
-------------------------|---------------------------|-----------------------|
-------------------------|---------------------------|-----------------------|
-------------------------|---------------------------|-----------------------|

--15--14-15-17--15-17-19--17-15-17--15--14--|--0----------------------|
--------------------------------------------|--20--------5--7--8--10--|
--------------------------------------------|-------------------------|
--------------------------------------------|-------------------------|
--------------------------------------------|-------------------------|
--------------------------------------------|-------------------------|


---------------------|--14----12--10--8--7--5--7--|--8~-------8--7--5--7--|
--12----5------------|----------------------------|-----------------------|
---------------------|----------------------------|-----------------------|
---------------------|----------------------------|-----------------------|
---------------------|----------------------------|-----------------------|
---------------------|----------------------------|-----------------------|

-------------------||
--5----------------||
-------------------||
-------------------||
-------------------||
-------------------||

Вверх

Man On The Silver Mountain

RIFF:
E|-------------------------------------------|
B|-------------------------------------------|
G|----------------3---------------------5--3-|
D|-----5--3--5-3--3--5--5--3--5---5--3-------|
A|-----5--3--5------3--5--5--3--5------------|
E|--3----------------------------------------|

E|-------------------------------|
B|-------------------------------|
G|-------------------------------|
D|----------------3--------------|
A|-----5--3--5-----3--5--5--3--1-|
E|--3----------------------------|

Вверх

May Be Next Time

|-------|-------------------------|-------------------------|
|-------|-------------------------|-------------------------|
|-----2-|-7s====5-----------4s==5-|-4s3---2---------------2-|
|-2-----|-------------------------|-------------------2-----|
|-------|-------------------------|-------------------------|
|-------|-------------------------|-------------------------|

|-------------------------|
|-------------------------|
|-7-----5-----------4s==5-|
|-------------------------|
|-------------------------|
|-------------------------|

|-----------------------------|------------------------|
|---------------------------5-|-6s====5----------------|
|-4s5s4---(4)-----------5-----|---------------------5--|
|---------------------5-------|-------------------5----|
|-----------------------------|------------------------|
|-----------------------------|------------------------|

|---------------------------|-------------------|-------------------------|
|---------------------------|-------------------|-------------------------|
|-9s====7-------------9---7-|-7s5---5-------4s3-|-2-(2)---------------2-5-|
|---------------------------|-------------------|-------------------------|
|---------------------------|-------------------|-------------------------|
|---------------------------|-------------------|-------------------------|

|---------------------------------|
|-------------3---5-6-------8---6-|
|-7-----(7)-----------------------|
|---------------------------------|
|---------------------------------|
|---------------------------------|

|------------------------------------|--------------------------|
|-5s6s5-----------(5)-----10-12---13-|-12---------------13s12---|
|-----------------------9------------|--------------------------|
|------------------------------------|--------------------------|
|------------------------------------|--------------------------|
|------------------------------------|--------------------------|

|----------------------|-------------------------|--------------------------|
|-12s====10------------|-------------------------|--------------------------|
|--------------------2-|-7-----5-----------4---5-|-4s3---2---------------2--|
|------------------2---|-------------------------|-------------------2------|
|----------------------|-------------------------|--------------------------|
|----------------------|-------------------------|--------------------------|

|-------------------------|---------------------------|
|-------------------------|-------------------------5-|
|-7-----5-----------4---5-|-4s5s4---(4)-----------5---|
|-------------------------|---------------------5-----|
|-------------------------|---------------------------|
|-------------------------|---------------------------|

|-------------------------------|
|-6s5s==6s==5s==6s==5s6-----5---|
|-------------------------------|
|-------------------------------|
|-------------------------------|
|-------------------------------|

|-----------------------------------|-------------------------------|
|-----------------------------------|-------------------------------|
|-9-9---9---9s7---9s7-------(7)-9---|-(9)-----7-5-5-(5)---(5)-5-7-9-|
|-----------------------------------|-------------------------------|
|-----------------------------------|-------------------------------|
|-----------------------------------|-------------------------------|

|-------------------------------------|
|---------------------------------13--|
|-10-----(10)---10s==12-14-----14-----|
|-------------------------------------|
|-------------------------------------|
|-------------------------------------|

|--------------------------------------|
|-15-----15---13-15-(15)---------15-15-|
|--------------------------------------|
|--------------------------------------|
|--------------------------------------|
|--------------------------------------|

|-------------------------------------|------------------------------|
|-15-13-13-13s==12---12-----10-0-12-0-|-13s12---------(12)-12-13s12--|
|-------------------------9-----------|------------------------------|
|-------------------------------------|------------------------------|
|-------------------------------------|------------------------------|
|-------------------------------------|------------------------------|

|--------------------------|------------|------------|-------------|
|-12s====10----------------|------------|------------|-------------|
|--------------------------|------------|------------|--------6-7--|
|--------------------------|------------|----------5-|-7----7------|
|--------------------------|-5------5-7-|-8------8---|-------------|
|--------------------------|------------|------------|-------------|

|-------------------------------------------|------------|-------------|
|-------------------------------------------|------------|----------10-|
|-7-6h7p6h7p6h7p6h7p6h7p6h7p6h7p6h7p6h7s5-7-|------------|-------------|
|-------------------------------------------|------------|--------7----|
|-------------------------------------------|-5------5-7-|-8-----------|
|-------------------------------------------|------------|-------------|

|-9-10-9-10-9-10-9h10p9h10p9h10p9h10p9h10p9h10p9h10p9h10-|-------|
|--------------------------------------------------------|-10----|
|--------------------------------------------------------|-------|
|--------------------------------------------------------|-------|
|--------------------------------------------------------|-------|
|--------------------------------------------------------|-------|

|-----------------|-------------|----------------|------------|
|-----------------|-------------|----------------|------------|
|-----------------|-------------|-5--2-----------|-4s==2p0----|
|-8-7-5-----------|-5h7p5--4----|------4-2-1-2-3-|------------|
|-------7-5s4-5-7-|--------5----|----------------|------------|
|-----------------|-------------|----------------|------------|

|------------|----------|------------|-----------|
|-6----6--5--|-3--------|------------|-----------|
|-7----7--5--|-4--------|------------|-----------|
|-9----9--7--|-6--------|-3----3--2--|-0---------|
|------------|----------|------------|------3----|
|------------|----------|------------|-----------|

|----------|---------------|-----------|---------------|
|----------|---------------|-----------|---------------|
|----------|-------------7-|-7s===5p===|=0-------5-7-5-|
|----------|-----------7---|-----------|-------7-------|
|----------|---------7-----|-----------|-----7---------|
|-0--------|-0-------------|-----------|---------------|

|------------|-----------------------|
|------------|-----------------------|
|-7s5s7p=====|=0-------7-7p5-7p5---5-|
|------------|-------7-----------7---|
|------------|-----7-----------------|
|------------|-----------------------|

|-------------------------------5-----|
|-----------------------------5---10--|
|-5s4---4-5s4---5-7p5---5-7-8---------|
|-----7-------7-------7---------------|
|-------------------------------------|
|-------------------------------------|

|---------7----8p7----8p7------------------------|------------------|
|-(10)-10---10-----10-----10-8p7s5-8p7p5---------|------------------|
|----------------------------------------8p7p5-7-|-7----(7)-7-7-7-7-|
|------------------------------------------------|------------------|
|------------------------------------------------|------------------|
|------------------------------------------------|------------------|

|-----------------|-----------------------------------------|
|-----------------|-----------------------------------------|
|-(7)-----5-7--7--|-7h9p7h9p7h9p7h9p7h9p7h9p7s5-7---5h7p5--|
|-----------------|-----------------------------------------|
|-----------------|-----------------------------------------|
|-----------------|-----------------------------------------|

|-------------------8-10-8h10p8-12-|
|-----------------8----------------|
|-(5)---(5)-(5)-9------------------|
|----------------------------------|
|----------------------------------|
|----------------------------------|

|-(12)--10----------------------|----------19-19--17---16-|
|----------13p12p10s9--10-9-----|-------17----------------|
|---------------------------9--|----17-------------------|
|-------------------------------|-------------------------|
|-------------------------------|-------------------------|
|-------------------------------|-------------------------|

|-17------8-10-12-|-(12)--10p8-----------8-|
|-------10---------|------------10-(10)-----|
|------------------|------------------------|
|------------------|------------------------|
|------------------|------------------------|
|------------------|------------------------|

|---------------------8-12-|-(12)---12---10p8------|
|-10---10-10--(10)-10------|------------------10p8-|
|--------------------------|-----------------------|
|--------------------------|-----------------------|
|--------------------------|-----------------------|
|--------------------------|-----------------------|

|----------8-10--8--|-10----x-12-13-12-|
|-10----10----------|------------------|
|-------------------|------------------|
|-------------------|------------------|
|-------------------|------------------|
|-------------------|------------------|

|-17--17--17s15p(15)p12----|------------------------|
|-----------------------15-|-17---17-(17)-15-15-13--|
|--------------------------|------------------------|
|--------------------------|------------------------|
|--------------------------|------------------------|
|--------------------------|------------------------|

|-----------------|------------12----13-12----13-|
|-15----(15)---17-|-15----(15)----15-------15----|
|-----------------|------------------------------|
|-----------------|------------------------------|
|-----------------|------------------------------|
|-----------------|------------------------------|

|-12-----------------------------------|
|----15-13p12----12-13p12--------------|
|-------------14----------14p13-14----|
|--------------------------------------|
|--------------------------------------|
|--------------------------------------|

|-12-10h12p10-8-10-9h10p9h10-----|
|----------------------------10--|
|--------------------------------|
|--------------------------------|
|--------------------------------|
|--------------------------------|

|--13-12-13-17s==15-|---5-7-8-7h8p7h8-5----------|
|-------------------|-------------------10-(10)--|
|-------------------|----------------------------|
|-------------------|----------------------------|
|-------------------|----------------------------|
|-------------------|----------------------------|

|-------------------------|--------------------------|------*|
|-6-5h6p5-----------------|-6-5----------------------|------*|
|---------7-5--4s5s4-(4)--|-----7-5-9-7--------------|------*|
|-------------------------|-------------7-9-10s9-7s5-|-7----*|
|-------------------------|--------------------------|------*|
|-------------------------|--------------------------|------*|

Вверх

May Be Next Time

Difficult To Cure 1 9 8 1

------------------|------------------|-------------------------|
------------------|------------------|-----6-5----5-3--5-3-3-1-|
---2--7--5-4-5-4-2|-2-7-5-4-5-4-5-4--|--4-7------5-------------|
2-----------------|2-----------------|-5--------5--------------|
------------------|------------------|-------------------------|
------------------|------------------|-------------------------|

------------------|------------------|--5--7--8--7--7-8--7-7-5-|
0-----------------|-------6-6-8-6-6-5|-5-----------------------|
--2--2--5--7---7--|---9--------------|-------------------------|
------------------|------------------|-------------------------|
------------------|------------------|-------------------------|
------------------|------------------|-------------------------|

------------------|------------------|-------------------------|
------------------|------------------|---------3---------------|
---2--7--5-4-5-4-2|-2-7-5-4-5-4-5-4--|-----5-------------------|
2-----------------|2-----------------|--5----------------------|
------------------|------------------|-------------------------|
------------------|------------------|-------------------------|

------------------|------------------|------------5-5-8--10-10-|
6-5-6-5-6-5-6-5-5-|5-5-3-5-3-5-3--1-1|-1-3-5-6-6-8-------------|
------------------|------------------|-------------------------|
------------------|------------------|-------------------------|
------------------|------------------|-------------------------|
------------------|------------------|-------------------------|

-8--10-10-10----8-|-8-8-7-7-7--5-7-8-|7-7-8-7-7-5--------------|
------------------|------------------|-------------------------|
------------------|------------------|-------------------------|
------------------|------------------|-------------------------|
------------------|------------------|-------------------------|
------------------|------------------|-------------------------|

Вверх

Rainbow Eyes

             |Куплет
|
E||----------------------|--------------------2-----|--------0-----------------|
B||-------------------0--|--------0--------------3--|-----------0--------1-----|
G||----------------------|-----------0--------------|-----------------------0--|
D||----------------2-----|-----0-----------0--------|-----2-----------2--------|
A||-------------2--------|--------------------------|--0-----------3-----------|
E||----------0-----------|--3-----------2-----------|--------------------------|



--------------------------|--0----------------------|--------------------2-----|
--------3-----------------|-------------------------|-----------0-----------3--|
-----------2-----------0--|-------0--------------0--|--------------------------|
-----0--------------2-----|----------2--------2-----|--------0--------0--------|
-----------------2--------|----------------2--------|-----2--------------------|
--2-----------0-----------|-------------0-----------|--3-----------2-----------|



--------0-------------0-----|--------------------------|
----------------------------|--------3-----------------|
-----------2-----0-------0--|-----------2-----------0--|
-----2-------2-----2--------|-----0--------------2-----|
--0------------3------------|-----------------2--------|
----------------------------|--2-----------0-----------|


|Припев
|
--0---------------------|-----------------------3--|-----------------------0--|
-------------------1----|--------3-----------0-----|--0-----------------------|
-------0----------------|-----------2--------------|-----0--------------------|
----------------2-------|-----0-----------0--------|--------------------2-----|
----------2--3----------|--------------------------|-----------------2--------|
------------------------|--2-----------3-----------|--------3--2--0-----------|



-----------------------2--|--3--2--0----------------|--------------------------|
--------2-----------3-----|-----------3-------------|--------3--------------0--|
-----2-----0-----2--------|--------------------0----|-----2-----2--------0-----|
--------------0-----------|-----------------2-------|--0--------------0--------|
--0-----------------------|--------------3----------|--------------------------|
--------------------------|-------------------------|--------------3-----------|



--3----------------------|--0--------0--------|----------------------||
-----0----------------1--|-----------1--------|----------------------||
--------0----------0-----|-----------2--------|----------------------||
----------------2--------|-----------2--------|----------------------||
-------------3-----------|-----------0--------|----------------------||
-------------------------|--------------------|----------------------||


|Поигрыш
|
E||----------------------|--0----------------------|-------0------------------|
B||----------------------|-----0----------------0--|--3--------------------3--|
G||-------------------0--|--------0----------0-----|----------0---------2-----|
D||----------------2-----|----------------2--------|------------2----0--------|
A||-------------2--------|-------------3-----------|--------------------------|
E||----------0-----------|-------------------------|--------------2-----------|



--3----2----------------|--0-----------------------|--2-----------------------|
------------------------|-----0--------------1-----|-----1-----1--------------|
---------------------0--|--------0--------2-----2--|--------2--------------0--|
------------------2-----|-----------2--------------|--------------------2-----|
---------------2--------|--------------0-----------|-----------------2--------|
------------0-----------|--------------------------|--------------0-----------|



--0---------------------|--0---------------------0--|-------------------------|
-------0-------------1--|-------1-------------0-----|----1--------------------|
------------------0-----|---------0-----------------|-------2--------------0--|
---------------2--------|------------------2--------|----------2--------2-----|
------------3-----------|-----------3-2-0-----------|----------------2--------|
------------------------|---------------------------|-------------0-----------|



--0-------------------2--|--------0--------------2--|--3----0-------------2--|
-------0-----------3-----|-----------1--------3-----|------------------1-----|
----------0-----2--------|-----------------2--------|---------------2--------|
-------------------------|-----2--------0-----------|------------0-----------|
-------------------------|--3-----------------------|------------------------|
-------------2-----------|--------------------------|------------------------|



--3----2------------||
--------------------||
--------------------||
--0----0------------||
--------------------||
--------------------||

Вверх

Since Youve Been Gone

E5          B5          C#5         A5
|-----------|-----------|-----------|--------|
|-----------|-----------|-----------|--------|
|-----------|--4--4-----|--6--6--6--|--2--2--|
|--2--2--2--|--4--4-----|--6--6--6--|--2--2--|
|--2--2--2--|--2--2-----|--4--4--4--|--0--0--|
|--0--0--0--|-----------|-----------|--------|


E5          B5 C#5 A5   A5          B5
|-----------|-----------|-----------|--------|
|-----------|-----------|-----------|--------|
|-----------|--4--6--2--|--2--2-----|--4-----|
|--2--2--2--|--4--6--2--|--2--2-----|--4-----|
|--2--2--2--|--2--4--0--|--0--0-----|--2-----|
|--0--0--0--|-----------|-----------|--------|

Вверх

Temple Of The King

Intro: 	Am / F / Am / F / Am / G /Dm/ Am

e|------------------------------|----------------------|
B|--5----3h5p3--1---3--1--2-----|--10--8---------------|
G|------------------------------|---------9--7---------|
D|------------------------------|---------------10--7--|
A|------------------------------|----------------------|
E|------------------------------|----------------------|

e|------------------------------|----------------------|
B|--3----1h3p1--0---1--0--------|------------0--1--3---|
G|------------------------2-----|--2--4---5------------|
D|------------------------------|----------------------|
A|------------------------------|----------------------|
E|------------------------------|----------------------|

e|------------------------------|----------------------|
B|--5----3h5p3--1---3--1--0-----|-----------?----------|
G|------------------------------|----------------------|
D|------------------------------|----------------------|
A|------------------------------|----------------------|
E|------------------------------|----------------------|

e|------------------------------|-------------------------|
B|--3----3h5p3--1---3--1--------|------------5--3---------|
G|------------------------2-----|--2--4---5--------4--(5)-|
D|------------------------------|-------------------------|
A|------------------------------|-------------------------|
E|------------------------------|-------------------------|


C		 G
One day in the year of the fox
Dm		Am
Came a time remembered well
F
When the strong young man
G
Of the rising sun heard the
Am
Tolling of the great black bell

(bass)
C		 G
One day in the year of the fox when the
E	      Am
Bell began to ring, it meant the
F		      G
Time had come for the one to go to the
Am
Temple of the King


Dm
There in the middle of the circle, he stands
Am
Searching, Seeking,
G
With just one touch of his trembling hand
Am
The answer will be found


Dm
Daylight waits for the oldman?s scream
Am
Heaven, help me,
G	            Dm
Just like a rush of thousand wings
E
It shines upon the world
F	G   	Am
And the day has just begun

Instru:	Am / F / G / Am
Am / G /Dm-F/ Am
(bass)
C		  G
One day in the year of the fox
Dm		Am
Came a time remembered well
F
When the strong young man
G
Of the rising sun heard the
Am
Tolling of the great black bell

(bass)
C		 G
One day in the year of the fox when the
E	      Am
Bell began to ring, it meant the
F		      G
Time had come for the one to go to the
Am
Temple of the King

Dm
There in the middle of people he stands
Am
Seeking, feeling
G
Just one touch of the strong right hand
E
He?s gone, to the
F      G      Am
Temple of the King

solo:  Am / F / Am / F / Am / G / Dm / E / Am / F / Am / F / Am / G / Dm / E


Solo:


Am      F                Am      F                Am            G         Dm
e|-----------------------------------------------------------------------------|
B|------8-----8-10--/13------10------------13--15--17---17p15-13-15--13-15-15-|
G|---------10--------------9----------12-14------------------------------------|
D|--7--------------------------------------------------------------------------|
A|-----------------------------------------------------------------------------|
E|-----------------------------------------------------------------------------|

E          Am           F            Am                F
e|-----------------------------------------------------------------------|
B|-b17r15--12------12-13~---12-13---------------13--17--15-b17r15-13-----|
G|----------------------------------------12-14--------------------------|
D|---------------------------------15------------------------------------|
A|-----------------------------------------------------------------------|
E|-----------------------------------------------------------------------|

Am                  G       Dm             E
e|-----------------------------------------------------------------------------|
B|----------------------12-13-15-15~-----13-15-17b18----17b18--r17b18r17b18r17-|
G|------12-----------14--------------------------------------------------------|
D|--15-------14----------------------------------------------------------------|
A|-----------------------------------------------------------------------------|
E|-----------------------------------------------------------------------------|


Dm
Far from the circle of the edge of the world
Am
He?s smoking, wandering
G
Thinking back of the stories he?s told
Am
Before he?s gonna see
Dm
There in the middle of the circle he lies
Am
Heaven, help me
G		     Dm
All could see by the shine in his eyes
E
The answer has been found

Dm
Back with the people in the circle he stands
Am
Seeing, feeling
G			    Dm			   E
With just one touch of the strong right hand they know
F      G      Am
Of the Temple and the King

instr: Am / F / G / Am
Am / G /Dm-F/ Am

arppegio: F - E - Am

Вверх