Ritchie Blackmore

Home Again
MeMINGEN
MeMINGEN (2 вариант)
Minstrel Hall
No Second Chance
Play Minstrel Play
Possum Goes To Prague
The Temple Of The King
Under A Violet Moon
Wish You Were Here
Вверх

Home Again

песня написана в Gm
для облегчения аппликатур каподастр на 3 лад

вступление (2 раза):

Em          D   G       H   Am          C H Em
e|-0-3-2h3p2p0-------0----------------------------
h|-------------3-1-0---3-1-0-----1-0--------------
g|-----------------------------2-----2-0---0------
d|---------------------------------------4---4-2--
a|-----------------------------0------------------
E|-0---------------3---------------------------0--

Куплет:

Em
I?ve been many places
C               H
Ive traveled round the world
Am             C                    Em
Always on the search for something new
Em
But what does it matter
C                    D
When all the roads I?ve crossed
Am              C          H7
Always seem to be back to you…

D
Old familiar faces
G
Everyone you meet
D                          G
Following the ways of the land
F#
Cobblestones and lanterns
Hm
Lining every street
F#                        H(7)
Calling me to come home again

Припев:

Em             D         G               H
Dancing in the moonlight seenging in the rain
Am                C H     Em
Oh, it?s good to be back home again
Em              D
Laughing in the sunlight
G                H
Running down the lane
Am                C  H    Em
Oh, it?s good to be back home again

проигрыш вступления под аккорды припева:

When you play with fire
Sometimes you get burned
It happens when you take a chance or two
But time is never wasted
When you?ve lived and learned
And it time it comes back to you…

Old familiar faces
Everyone you meet
Following the ways of the land
Cobblestones and lanterns
Lining every street
Calling me to come home again

припев

And when I got weary
I sit a while and rest
Memories invading my mind
All the things I?d treasured
The ones I?d loved the best
Were the things that I?d left behind…

Old familiar faces
Everyone you meet
Following the ways of the land
Cobblestones and lanterns
Lining every street
Calling me to come home again

припев

Вверх

MeMINGEN

E tuning
каподастр на 2 ладу

E||--------------0h-2--|--3-----2h3h2h0------------|--0----------------|
B||--------------------|-----0-----------3---------|--1----------------|
G||--------------------|----------------------0----|--0----------------|
D||--------------------|--2------------------------|--2----------------|
A||--------------------|-----------------2---------|--3----------------|
E||--------------------|---------------------------|-------------------|

--------------------------|---------------0h-2--|--3-----2h3h2h0------------|
--1----1h0---------0------|---------------------|-----0-----------3---------|
--2--------2--0-------2h0-|--2------------------|----------------------0----|
--2-----------------------|--0------------------|--2------------------------|
--0-----------------------|---------------------|-----------------2---------|
--------------0-----------|--2------------------|---------------------------|

--0----------------|------------------------|-------------------|
--1----------------|--1----1h0--------------|-------------------|
--0----------------|--2--------2--0----2----|--1----------------|
--2----------------|--2----------------0----|--2----------------|
--3----------------|--0---------------------|-------------------|
-------------------|--------------0----2----|--0----------------|

----------------------|----------------------|----------------------|
--1---------3------1--|--0---------1------0--|------------0---------|
--2---------2---------|--0---------0---------|--2----2----2---------|
--2-------------------|----------------------|-----------------2----|
--0-------------------|----------------------|----------------------|
-------3----2---------|--3----1----0---------|--1----0----0---------|

---------------0--------|--1h-0------------------|--0---------------------|
--0h1h0---3----1--------|--------3--1--0---------|------------1-----------|
------------------------|------------------------|-------4----2----4h2h0--|
------------------------|--0---------------------|------------2-----------|
--0-------2----3--------|------------------------|------------0-----------|
------------------------|--------------3----1----|--4---------------------|

------------------------|---------------0h-2--|--3-----2h3h2h0------------|
-------0--1--0----------|---------------------|-----0-----------3---------|
--2-----------------2h1-|--2------------------|----------------------0----|
------------------------|---------------------|--2------------------------|
------------------------|--0------------------|-----------------2---------|
--1----------0----------|---------------------|---------------------------|

--0----------------|--------------------------|---------------0h-2--|
--1----------------|--1----1h0---------0------|---------------------|
--0----------------|--2--------2--0-------2h0-|--2------------------|
--2----------------|--2-----------------------|--0------------------|
--3----------------|--0-----------------------|---------------------|
-------------------|--------------0-----------|--2------------------|

--3-----2h3h2h0------------|--0------------------|--3----2h3h2-0------------|
-----0-----------3---------|--1----1/-----8------|----------------4----7/---|
----------------------0----|--0------------------|--------------------------|
--2------------------------|--2------------------|--2-----------------------|
-----------------2---------|--3------------------|----------------2---------|
---------------------------|---------------------|--------------------------|

--0----------------||
--0----------------||
--1----------------||
--2----------------||
--2----------------||
--0----------------||

Вверх

MeMINGEN (2 вариант)

Символ "!" означает, что ноты под ним должны быть взяты не все сразу, а быстро
одна за другой, с нижней к верхней, как бы ударом по струнам.


Part1
!        !   !
E-5-7-8/9/8-7-3--0-1----1-0---0-0----
B------------------3----3---1---0----
G------------------2----2---2---1----
D------------------0----0---2---2----
A---------------------------0---2----
E-------------------------------0----

!        ! ! !
E-5-7-8/9/8-7-3--0-1----1-0----------
B------------------3----3---1-1------
G------------------2----2---2---1----
D------------------0----0---2-2-2----
A---------------------------0-3-2----
E------------------------------------

Part2

! ! !
E--3--0-1-5-3-0-1-5-3-0-1----0-0-3---
B-------------------------3--1-1-0---
G----------------------------2-0-0---
D-----0-0-----0-0-----0-1----2-2-0---
A--2-------------------------0-3-2---
E--3-------------------------0-0-3---


E-6-5-3-2-1---5-0-1---------3-1-0-----------
B-----------------3---1h2p3-----------------
G-0---------------2---------------3h2p4-----
D---------0-------0-------------------------
A-------------4-----------------------------
E-------------------------------------------


Part3

!        !   !
E-5-7-8/9/8-7-3--0-1----1-0---0-0----
B------------------3----3---1---0----
G------------------2----2---2---1----
D------------------0----0---2---2----
A---------------------------0---2----
E-------------------------------0----




!
E-5-7-8/9/8-7-3--0-1/9----
B------------------3/11---
G------------------2/10---
D------------------0------
A-----------------------
E-----------------------

!
E-1--7-5-3-1-0-----0---
B-3---------------1----
G-2--------------2-----
D---------------2------
A--------------0-------
E----------------------

Вверх

Minstrel Hall

Символ "!" означает, что ноты под ним должны быть взяты не все сразу, а быстро
одна за другой, с нижней к верхней, как бы ударом по струнам. Я постарался
расположить цифры в соответствии с темпом, но это оказалось непросто, так что
лучше сверяться с записью.
Комбинации типа "2h3p2" означают, что нужно, дернув струну на 2-м ладу, быстро
ударить по ней и отпустить на 3-м так, чтобы получилась трель.

Последовательность:
Part A - Bridge - Part A - Bridge - Part B - Part A -(без Bridge)- Part C

Part A:
!
E|-----0--1--0--------------------------------------|
B|--3----------3-1----------------------------------|
G|--2---------------3--2----3--2-0----2--2-0--------|
D|--0-----0------------------------3---------3-2-0--|
A|---------------3--1--0-----------------0----------|
E|--------------------------3------1----------------|

!
E|-----0--1--0--------------------------------------|
B|--3----------3-1-----------------------------0-2--|
G|--2---------------3--2----3--2-0----2--2p1-2------|
D|--0-----0------------------------3----------------|
A|---------------3--1--------------------0-------4--|
E|---------------------1----3------1----------------|

!            !
E|-------0----5--3/1--0h1-----|
B|--2--3-------------------3--|
G|---------2------------------|
D|---------------0------------|
A|--4-------------------------|
E|----------------------------|

!
E|--6-5-3-1-0--------------------------------|
B|------------3-1----------------------------|
G|--0-------------3-2-3-2h3p2-0--------------|
D|------------------------------3-2-0h2p0----|
A|----------3-------0---------------------4--|
E|-------------------------------------------|


E|--------0-1--0--------------------------------------|
B|------3--------3-1----------------------------------|
G|----2---------------3--2----3--2-0----2--2-0--------|
D|--0-------0------------------------3---------3-2-0--|
A|-----------------3--1--0-----------------0----------|
E|----------------------------3------1----------------|
Конец Part A.

Bridge:
E|--1p0--------|
B|------3------|
G|--------2----|
D|----------0--|
A|-------------|
E|-------------|
Конец Bridge.

Part B:
!
E|-----1--0--5--1--5--3--5-6-8----------6--5h6-5h6p5----------------|
B|--3---------------------------10-8-6---------------8-6-5h6p5-3-2--|
G|------------------------------------------------------------------|
D|--0-----------0---------------------------------------------------|
A|--------4-----------3------8-------------0------------------------|
E|-----------------------------------6------------------------------|


E|------------------1p0-----5p3-------------0h1p0----|
B|----------------3-----3-------6-5/3-----3-------3--|
G|--3p2-0-----0-3---------2-------------3------------|
D|--------3-2-------0-----------------0--------------|
A|--1-------------------------------1----------------|
E|----------0----------------------------------------|


E|--------------------------|
B|--2h3p2--------2h3p2------|
G|--------3-2----------3-2--|
D|--------------------------|
A|--0------------0----------|
E|--------------------------|


E|----------------------------------------------------------0-----------------|
B|------------------------------------------2h5p2-------25------------8---10-|
G|----------------------------3-2-0-----0-2-------3-2h3-------7-6----9---9----|
D|--------0-2h3p2-0---0-2-35-------2-3---------------------------8-----------|
A|--0h1-4-----------4---------------------------------------------------------|
E|----------------------------------------------------------------------------|
Конец Part B.

Part C:
!                  !
E|-----0--1--0---------------------------------|
B|--3----------3-1-----------------------------|
G|--2---------------3--2h3p2(<-несколько раз)--|
D|--0-----0------------------------------------|
A|---------------3--1--0-----------------------|
E|---------------------------------------------|

!      !      !
E|--6--5-3-1--5--5-3/1--0------------3-5-5h6--5-3--------------------------|
B|------------------------6/3--3-5-6--------------6-5-3-1------------------|
G|--0--------------------------2--------------------------3-2-0------------|
D|---------0-------------------0--------------------------------3-2-3/--0--|
A|------------4---------0--------------------------------------------------|
E|---------------0---------------------------------------------------------|

Вверх

No Second Chance

      Hm                G             A               D
My diamond?s clouded over where it used to shine like light,
G               Em
And the day keeps running faster,
Hm
Into the arms of night...
Hm               G
The stitches on the tapestry say,
A           D
"Everything in time,
G             Em
Will find it?s way home again,"
F#
But I?m tired of crying...

Припев:
Em         Hm
No Second Chances
Em         Hm
Don?t knock on my door
Em     D  A
There won?t be any answer
F#         Hm
I won?t be here no more...
Em            Hm
This house we had together
Em              Hm
?Might still be in its place
G              Em               F#
But the rest of this is much too hard to face,

There?ll be No Second Chance...


куплет 2:

Lovely moonlit hours  we spent
Walking on the beach,
We?d gaze up at the stars,
I swear they were in our reach...

But time... it went on,
?Minutes... they ran too fast.
Like you they were gone...
Into the past...

Припев.

Куплет:
Now my diamond?s clouded over where it used to shine like light,
And the day keeps running faster,
Into the arms of night...

The stitches on the tapestry say,
"Everything in time,
Will find it?s way home again,"
But I?m tired of crying...

Припев.

Вверх

Play Minstrel Play

Песня играется в Cm посему ставим каподастр на 3 лад

вступление (2 раза):

e|------0-5-7-8-7-5-0----1-3-5-0------1-0-----------0-----------
h|----------------------3------------3----3-1-0-1-3---3-1-0-----
g|---2-----------------2------------2-----------------------2---
d|--2-----------------0------------0----------------------------
a|-0---------------------------0----------------------------0---
E|--------------------------------------------0-----0-----------

куплет:

e|-----------------------0------------------------------------
h|---0-1-3-1-0-----0-1-3---3-0-1-0------0-1-0---1-0-----------
g|-2-----------2-2-----------------2--2-------2-----2-2-0-0---
d|--------------------------------------------------2-2-0-0---
a|-0-----------0---------------0------0-------0-----0-----2---
E|------------------------------------------------------------

e|-----------------------0------------------------------------
h|---0-1-3-1-0-----0-1-3---3-0-1-0------0-1-0---1-0-----------
g|-2-----------2-2-----------------2--2-------2-----2-2-0-0---
d|--------------------------------------------------2-2-0-0---
a|-0-----------0---------------0------0-------0-----0-----2---
E|------------------------------------------------------------


припев:

e|-----0-0---0-1-0---0------3-1-0------------------0-0---0-1-0------------------
h|----1----3---------------0------3----1-0--------1----3-------3-1----0-1-0-----
g|---0--------------------0-----------2----2-----0-------------------0------2---
d|--2--------------------0-----------2----------2-------------------0-------2---
a|-3--------------------2-----------0----------3----------------------------0---
E|---------------------3--------------------------------------------------------

e|-----0-0---0-1-0---0------3-1-0--------------0-------0-0---0-1-0-------------------
h|----1----3---------------0------3-1-0----1-3--------1----3-------3-1-----0-1-0-----
g|---0--------------------0---------------2----------0--------------------0------2---
d|--2--------------------0---------------2----------2--------------------0-------2---
a|-3--------------------2---------------0----------3--------------------2--------0---
E|---------------------3-----------------------------------------------3-------------


текст:

Am
Underneath the harvest moon
Where the ancient shadows will play and hide...
With a ghostly tune and the devil?s pride...
"Stranger" whispered all the town
Has he come to save us from Satan?s hand?
Leading them away to a foreign land...

C
Play for me, minstrel, play
G             Am
And take away our sorrows...
C
Play for me, minstrel, play
G  Am
And we?ll follow...
C
Hear, listen, can you hear,
G                  Am
The haunting melody surrounding you,
C                G                Am
Weaving a magic spell all around you...


Danger hidden in his eyes,
We should have seen it from far away,
Wearing such a thin disguise in the light of day...
He held the answer to our prayers,
Yet it was too good to be...
Proof before our eyes, yet we could not see...

Вверх

Possum Goes To Prague

|---------0h7p0----|--------------0-----------|---------0--------|
|-------0-------10-|-8h10p8p7---8---0---------|---0---0---0------|
|-----9------------|----------9-------0-4h5p4-|-----4-------4----|
|---9--------------|--------------------------|-7-------------7--|
|-7----------------|--------------------------|------------------|
|------------------|--------------------------|------------------|


|------------------|---------0h7p0----|--------------0-----------|
|------------------|-------0-------10-|-8h10p8p7---8---0---------|
|------------------|-----9------------|----------9-------0-4h5p4-|
|-5h7p5p4---4------|---9--------------|--------------------------|
|---------6---7----|-7----------------|--------------------------|
|------------------|------------------|--------------------------|


|---------0-------|------------------|
|---0---0---0-----|------------------|
|-----4-------4---|------------------|
|-7-------------7-|-5h7p5p4---4------|
|-----------------|---------6---7----|
|-----------------|------------------|


|-------------12-15-14-12-|-11h14p11----------------|
|----------13-------------|----------12-------------|
|-------12----------------|-------------11----------|
|----14-------------------|----------------13-------|
|-15----------------------|-------------------14----|
|-------------------------|----------------------11-|


|-----------------|--------------------|
|-----------------|--------------------|
|---------------2-|---5-4h5p4h5p4------|
|---------2-4-5---|---------------7----|
|-------2---------|-0------------------|
|-0-2-3-----------|--------------------|


|---------------5-|-3h5p3p0-------0------|
|-----4-------0---|---------5-0-3---5----|
|---4---4---5-----|-------------------7--|
|---------4-------|----------------------|
|-2---------------|----------------------|
|-----------------|----------------------|


|-------------------------|--------------|-----------------|---------------0-|
|-------------0-----------|--------------|-------0-------0-|-----------0-----|
|-5-4h5p4---4---4---------|--------------|-----0-------5---|---0---0-----0---|
|---------7-------7-5h7p5-|-4---4--------|---4-------4-----|-----4---5-------|
|-------------------------|---7---6-7----|-6-------6-------|-7---------------|
|-------------------------|--------------|-----------------|-----------------|


|-----------------|---------2-3-2h3p2h0-|-----------------|------------------|
|---5-------------|-------3-------------|-------0-------0-|------------------|
|-------7---5---4-|-----2---------------|-----0-------5---|-------------0-2p=|
|-----------------|---0-----------------|---4-------4-----|---------2-4------|
|-0---0---0---0---|---------------------|-6-------6-------|-------2----------|
|-----------------|-2-------------------|-----------------|-0-2-3------------|


|---------------------|---------3-2h3p2p0---|---------0-------|------|
|-----------0---------|-----3-------------0-|-------7---7-----|------|
|-0-------0---2h4p2p0-|---2---2-------------|-----8-------8---|------|
|---2---2-------------|-0-------------------|---9-----------9-|------|
|-----3---------------|---------------------|-----------------|------|
|---------------------|---------------------|-7---------------|-7----|


|---------0h7p0----|--------------0-----------|---------0-------|
|-------0-------10-|-8h10p8p7---8---0---------|---0---0---0-----|
|-----9------------|----------9-------0-4h5p4-|-----4-------4---|
|---9--------------|--------------------------|-7-------------7-|
|-7----------------|--------------------------|-----------------|
|------------------|--------------------------|-----------------|


|------------------|---------0h7p0----|--------------0-----------|
|------------------|-------0-------10-|-8h10p8p7---8---0---------|
|------------------|-----9------------|----------9-------0-4h5p4-|
|-5h7p5p4---4------|---9--------------|--------------------------|
|---------6---7----|-7----------------|--------------------------|
|------------------|------------------|--------------------------|


|---------0-------|------------------|
|---0---0---0-----|------------------|
|-----4-------4---|------------------|
|-7-------------7-|-5h7p5p4---4------|
|-----------------|---------6---7----|
|-----------------|------------------|


|-------------12-15-14-12-|-11h14p11----------------|
|----------13-------------|----------12-------------|
|-------12----------------|-------------11----------|
|----14-------------------|----------------13-------|
|-15----------------------|-------------------14----|
|-------------------------|----------------------11-|


|-----------------|--------------------|
|-----------------|--------------------|
|---------------2-|---5-4h5p4h5p4------|
|---------2-4-5---|---------------7----|
|-------2---------|-0------------------|
|-0-2-3-----------|--------------------|


|---------------5-|-3h5p3p0-------0------|
|-----4-------0---|---------5-0-3---5----|
|---4---4---5-----|-------------------7--|
|---------4-------|----------------------|
|-2---------------|----------------------|
|-----------------|----------------------|


|-------------------------|--------------|-----------------|--------0-8-7p0-|
|-------------0-----------|--------------|-----------1p0---|------7---------|
|-5-4h5p4---4---4---------|--------------|---------2-----2-|----8-----------|
|---------7-------7-5h7p5-|-4---4--------|---1-2-4---------|--9-------------|
|-------------------------|---7---6-7----|-2---------------|----------------|
|-------------------------|--------------|-----------------|----------------|


Q=80
|-----------0-11-12-14-|
|--------13------------|
|-----11---------------|
|--13------------------|
|----------------------|
|----------------------|


|-15-14h15p14-12----------------------|-<12>---------------*|
|----------------15-13-12h13p12----12-|------12-10----9----*|
|-------------------------------14----|------------11------*|
|-------------------------------------|--------------------*|
|-------------------------------------|--------------------*|
|--0----------------------------------|---------------0----*|

Вверх

The Temple Of The King

Guitar1:  e------------------|------------------|
H-5-------3p5--3---|------------------|
G-------------5-4-5|-2----------------|
D------------------|------------------|
A------------------|------------------|
E------------------|------------------|

Guitar2:  e-0--------0-------|---------1--------|
H-1----1-----1---1-|-----1-----1---1--|
G-2--2---2-----2---|---2---2-----2----|
D-2----------------|------------------|
A-0----------------|-3----------------|
E------------------|------------------|
_________________________________________________
Guitar1:  e------------------|------------------|
H-3-------1p3--1---|------------------|
G-------------4-2-4|-2----------------|
D------------------|------------------|
A------------------|------------------|
E------------------|------------------|

Guitar2:  e---------3--------|---------0--------|
H-----0-----0---0--|-----1-----1---1--|
G---0---0-----0----|---2---2-----2----|
D------------------|------------------|
A------------------|-0----------------|
E-3----------------|------------------|
_________________________________________________
Guitar1:  e------------------|------------------|
H-5-------3p5--3---|------------------|
G-------------5-4-5|-4----------------|
D------------------|------------------|
A------------------|------------------|
E------------------|------------------|

Guitar2:  e-0--------0-------|---------3--------|
H-1----1-----1---1-|-----0-----0---0--|
G-2--2---2-----2---|---0---0-----0----|
D-2----------------|------------------|
A-0----------------|------------------|
E------------------|-3----------------|
_________________________________________________
Guitar1:  e------------------|------------------|
H-3-------1p3--1---|------------------|
G-------------4-2-4|-2----------------|
D------------------|------------------|
A------------------|------------------|
E------------------|------------------|

Guitar2:  e---------3--------|---------1--------|
H-----0-----0---0--|-----3-----1---1--|
G---0---0-----0----|---2---2-----2----|
D------------------|-0----------------|
A------------------|------------------|
E-3----------------|------------------|
_________________________________________________
riff:     e------------------|
H------------------|
G------------------|
D-----2-3-2--------|
A-3-5-------5-3----|
E------------------|
_________________________________________________

C		 G
One day in the year of the fox
Dm		Am
Came a time remembered well
F
When the strong young man
G
Of the rising sun heard the
Am
Tolling of the great black bell

(riff)
C		 G
One day in the year of the fox when the
E	      Am
Bell began to ring, it meant the
F		      G
Time had come for the one to go to the
Am
Temple of the King


Dm
There in the middle of the circle, he stands
Am
Searching, Seeking,
G
With just one touch of his trembling hand
Am
The answer will be found


Dm
Daylight waits for the oldman?s scream
Am
Heaven, help me,
G	            Dm
Just like a rush of thousand wings
E
It shines upon the world
F	G   	Am
And the day has just begun

(Instrumental)
(riff)
C		  G
One day in the year of the fox
Dm		Am
Came a time remembered well
F
When the strong young man
G
Of the rising sun heard the
Am
Tolling of the great black bell

(riff)
C		 G
One day in the year of the fox when the
E	      Am
Bell began to ring, it meant the
F		      G
Time had come for the one to go to the
Am
Temple of the King

Dm
There in the middle of people he stands
Am
Seeking, feeling
G
Just one touch of the strong right hand
E
He?s gone, to the
F      G      Am
Temple of the King

(Instrumental, p.s. последняя нота в
Guitar1 не G--2--, а H--5--)


solo:   Am / F / Am / F / Am
G / Dm / E / Am / F / Am / F
Am / G / Dm / E
Dm
Far from the circle of the edge of the world
Am
He?s smoking, wandering
G
Thinking back of the stories he?s told
Am
Before he?s gonna see
Dm
There in the middle of the circle he lies
Am
Heaven, help me
G		     Dm
All could see by the shine in his eyes
E
The answer has been found

Dm
Back with the people in the circle he stands
Am
Seeing, feeling
G			    Dm			   E
With just one touch of the strong right hand they know
F      G      Am
Of the Temple and the King

(instrumental)

Вверх

Under A Violet Moon

Играется с каподастром на 3 ладу
(соответственно все аккорды и табы указаны относительно каподастра)

Intro:

e|-------------------------------------------------0h1p0------------------
h|-----------0h1p0-------------3-1h3p1p0---------1-------3-1h3p1p0--------
g|---------2-------2-------2-------------0-----2-------------------2-0-2--
d|-------2-----------2---2---2---------------2----------------------------
a|-----0---------------0-------------------0---------------------------0--
E|-0h3--------------------------------------------------------------------

e|-----------------------------0h1p0---------5-7h8p7-5------------
h|-----------0h1p0-----------1-------3-----5-----------5----------
g|---------2-------2-------2-------------5---------------5-4h5-2--
d|-------2-----------2---2----------------------------------------
a|-----0---------------0---------------0-----------------------0--
E|-0h3------------------------------------------------------------

Am             G
Dancing to the feel of the drum
Am                 G
Leave this world behind
Am                     G
We?ll have a drink and toast to ourselves
F        Em      Am
Under a Violet Moon
Am                  G
Tudor Rose with her hair in curls
Am                 G
Will make you turn and stare
Am            G
Try to steal a kiss at the bridge
F        Em     Am
Under a Violet Moon

Припев:
Am                        Dm      G
Raise your hats and your glasses too
G                  C
We will dance the whole night through
C           G/H       F        Am
We?re going back to a time we knew
F        Em     Am
Under a Violet Moon


Cheers to the Knights and days of old
the beggars and the thieves
living in an enchanted wood
Under a Violet Moon

Fortuneteller what do you see
Future in a card
Share your secrets, tell them to me
Under a Violet Moon

Close your eyes and lose yourself
In a medieval mood
Taste the treasures and sing the tunes
Under a Violet Moon

Tis my delight on a shiny night
The seasons of a year
To keep the lanterns burning bright
Under a Violet Moon

Вариант для второй гитары:
Куплет:
Am        G         Am      G
e|---------------------------------------
h|-------0-1-3-0-----------0-1-0---------
g|-2-2-2---------2-0---0-0-------2-0-----
d|---------------------------------------
a|-0-------------------2-----------------
E|-----------------------------3---------

Am        G         F     Em  Am
e|---------------------------------------
h|-------0-1-3-0-------1-0---------------
g|-2-2-2---------2-0-------2-0-0-2-------
d|---------------------------------------
a|-0-----------------------------0-------
E|---------------------1-----0-----------

Припев:

Am        Dm      G         C
e|-0-0-0---0-1-0---------------0---------
h|-------3-------3---3-3-3-1-3---3-1-----
g|---------------------------------------
d|-----------0---------------------------
a|-0---------------------------3---------
E|-------------------3-------------------

C     G     F   Am F     Em  Am
e|-------------------0-------------------
h|---0-1---0-1---3-1---3-1-0-1-----------
g|-2-----0---------------------2---------
d|-------------3-------------------------
a|-----------------------------0---------
E|---------------------------------------

Вверх

Wish You Were Here

Accords:
eBGDAE
Em*       : 300220
Esus2     : 200220
Esus4add9 : 202220
Em/H      : 004220
D6        : 202000
Dsus4     : 332000

Chorus:
Em* Esus2 Em*  Em
Wish You Were Here...
C                   D
Me, oh, my country man,
G   Em* Esus4add9
Wish You Were Here...
Em* Esus2 Em*  Em
I Wish You Were Here...
C                D               G
Don?t you know, the snow is getting colder,
H
And I miss you like hell,
H7                Em
And I?m feeling blue...

E                     Am
I?ve got feelings for you,
D7            G     Em* Esus4add9
Do you still feel the same?
E                    Am
From the first time I laid my eyes on you,
D
I felt joy of living,
G                    H
I saw heaven in your eyes...
H7       Em
In your eyes...

Chorus

Am
I miss your laugh, I miss your smile,
Em*   Esus2 Em
I miss everything about you...
Am
Every second?s like a minute,
H
Every minute?s like a day
H7               Em
When you?re far away...

Em/H     D        G       C(III)
The snow is getting colder, baby,
G                H
I Wish You Were Here...
Em/H     D        C(III)   H
A battlefield of love and fear,
G                H
I Wish You Were Here...

E                     Am      D6  G
I?ve got feelings for you,
E                      Am                    Dsus4  D
From the first time I laid my eyes on you...

Chorus

Вверх