Sting


All This Time



Desert Rose



English Man In New
York



Fields Of Gold



Fragile



If I Ever Lose My Faith



La Belle Dame
Sans Regret



Mad About You



Shape Of My Heart



Shape Of My Heart (2
вариант)



Shape Of My Heart (3
вариант)



Why Should I Cry For
You


Вверх


All This Time

G       Em      D      C (x4)

G     Em  D
I looked out across
C       G    Em  D  C
The river today,
G                    Em           D
I saw a city in the fog and an old church tower
C              G  Em  D  C
Where the seagulls play,
G        Em      D            C
I saw the sad shire horses walking home
G            Em  D  C
In the sodium light
G
I saw two priests on the ferry
Em       D         C              G    Em  D
October geese on a cold winter's night


Em         D/F#  Em
And all this time,
A            C
The river flowed
D             G    Em  G  D
Endlessly to the sea.


( Verses are just G-Em-D-C repeated;
Chorus is as above, repeated till end of chorus )


Two priests came round our house tonight
One young, one old, to offer prayers for the dying
To serve the final rite,
One to learn, one to teach,
Which way the cold wind blows
Fussing and flapping in priestly black
Like a murder of crows


Chorus:
And all this time, the river flowed
Endlessly to the sea
If I had my way I'd take a boat from the river
And I'd bury the old man,
I'd bury him at sea


Blessed are the poor, for they shall inherit the earth
Better to be poor than a fat man in the eye of the needle
And as these words were spoken I swear I hear
The old man laughing,
"What good is a used up world, and how could it be
Worth having"


Chorus:
And all this time the river flowed
Endlessly like a silent tear
And all this time the river flowed
Father, if Jesus exist,
Then how come he never lived here.


(Now switch key to A - thus this verse is A-F#m-E-D)

The teachers told us, the Romans built this place
They built a wall and a temple, an edge of the empire
Garrison town,
They lived and they died, they prayed to their gods
But the stone gods did not make a sound
And their empire crumbled, 'til all that was left
Were the stones the workmen found


Chorus:
F#m        E  F#m
And all this time
B             D
The river flowed
E              A    F#m  A
Endlessly to the sea
F#m          E  F#m
If I had my way
B                D
I'd take a boat from the river
E
Men go crazy in congregations

But they only get better
One by one


(repeat A-F#m-E-D progression and fade)

One by one
One by one by one
One by one

I looked out across...  { Chorus: All this time... }

Вверх


Desert Rose

Cm
I dream of rain
Cm/Bb
I dream of gardens in the desert sand
Ab
I wake in pain
Fm                  G7                   Cm
I dream of love as time runs through my hand


I dream of fire
Those dreams are tied to a horse that will never tire
And in the flames
Her shadows play in the shape of a man?s desire


Eb
This desert rose
Gm7
Each of her veils, a secret promise
Bb
This desert flower
Fm                G7                     Cm
No sweet perfume ever tortured me more than this


And as she turns
This way she moves in the logic of all my dreams
This fire burns
I realize that nothing?s as it seems


I dream of rain
I dream of gardens in the desert sand
I wake in pain
I dream of love as time runs through my hand


I dream of rain
I lift my gaze to empty skies above
I close my eyes, this rare perfume
Is the sweet intoxication of her love


I dream of rain
I dream of gardens in the desert sand
I wake in pain
I dream of love as time runs through my hand


Sweet desert rose
Each of her veils, a secret promise
This desert flower
No sweet perfume ever tortured me more than this


Sweet desert rose
This memory of Eden haunts us all
This desert flower, this rare perfume
Is the sweet intoxication of the fall

Вверх


English Man In New
York

Bm  Bm7

Em             A            Bm           Bm7
I don't drink coffee I take tea my dear
Em         A                Bm    Bm7
I like my toast done on the side
Em           A            Bm            Bm7
And you can hear it in my accent when I talk
Em        A       Bm   Bm7
I'm an Englishman in New York

See me walking down Fifth Avenue
A walking cane here at my side
I take it everywhere I walk
I'm an Englishman in New York

Em      A      Bm          Bm7
I'm an alien   I'm a legal alien
Em        A       Bm   Bm7
I'm an Englishman in New York
Em      A      Bm          Bm7
I'm an alien   I'm a legal alien
Em        A       Bm   Bm7
I'm an Englishman in New York

If "manners maketh man" as someone said
Then he's the hero of the day
It takes a man to suffer ignorance and smile
Be yourself no matter what they say

I'm an alien   I'm a legal alien
I'm an Englishman in New York
I'm an alien   I'm a legal alien
I'm an Englishman in New York

D                       A         A7
Modesty, propriety can lead to notoriety
Bm           Bm7             F#
You could end up as the only one
G                        A
Gentleness, sobriety are rare in this society
Gdim7                              Bm
At night a candle's brighter than the sun

Takes more than combat gear to make a man
Takes more than license for a gun
Confront your enemies, avoid them when you can
A gentleman will walk but never run

If "manners maketh man" as someone said
Then he's the hero of the day
It takes a man to suffer ignorance and smile
Be yourself no matter what they say

I'm an alien   I'm a legal alien
I'm an Englishman in New York
I'm an alien   I'm a legal alien
I'm an Englishman in New York

Вверх


Fields Of Gold

e--14--|-----|--0--0--0--0---|--0--0--0--0---|--
B--15--|-----|---2--2--2--2--|---2--2--2--2--|--
G--16--|-----|----2--2--2--2-|----2--2--2--2-|--

e--0--0--0--0---|--0--0--0--0---|--0--0--0--0---|-----|--
B---2--2--2--2--|---0--0--0--0--|---0--0--0--0--|-----|--
G----4--4--4--4-|----4--4--4--4-|----4--4--4--4-|-----|--


Bm                           G
You'll remember me when the west wind moves
D
Upon the fields of barley
Bm                  G       D
You'll forget the sun in his jealous sky
G       A             Bm
As we walk in fields of gold


{ Pipe } { Bm G D }

{ You can play this on the guitar instead of using a pipe... }
{ If they did it in Oslo, why can't we? :) }

e--10---10-|--9-7--------------|----10---|--
B----------|------10--8--10-10-|--8----7-|--
G----------|-------------------|---------|--


Bm                   G
So she took her love for to gaze awhile
D
Upon the fields of barley
Bm                   G         D
In his arms she fell as her hair come down
G         A             D
Among the fields of gold


Play this with the next verse:

e-------------|---------------|---------------|--
B-------------|---------------|---------------|--
G--7-6-4-2--2-|--7-6-4-2--2/4-|--4--2-2-------|--
D-------------|---------------|----------0-/4-|--
A-------------|---------------|---------------|--
E-------------|---------------|---------------|--

e-------------|-------------|------------------|--
B-------------|-------------|------------------|--
G--7-6-4-2--2-|--7-6-4-2--2-|------------------|--
D-------------|-------------|--2-4-5--4-4--2-0-|--
A-------------|-------------|------------------|--
E-------------|-------------|------------------|--


Bm                   G
Will you stay with me will you be my love
D
Among the fields of barley
Bm                  G       D
We'll forget the sun in his jealous sky
G      A             Bm
As we lie in fields of gold


{ Pipe } { Bm G D }

Or guitar solo:

e--10---10-|--9-7--------------|----10---|--
B----------|------10--8--10-10-|--8----7-|--
G----------|-------------------|---------|--


{ Fast fingering - finger strings B, G and D in that order 5 times per
measure, using the following patterns with each chords:
When in Bm play  x x  9 11 10 x      When in G  play  x x 12 12 10 x
When in D  play  x x 12 11 10 x      When in A  play  x x 11  9 10 x }

Bm                     G
See the west wind move like a lover so
D
Upon the fields of barley
Bm                 G        D
Feel her body rise when you kiss her mouth
G         A              D
Among the fields of gold


{ Play this part with the same patterns described above for G, D and A }
{ Pull the three strings simultaneously 4 times per measure }

G                      D
I never made promises lightly
G                    D
And there have been some that I've broken
G                   D
But I swear in the days still left

e-------------------|-------------------|--
B-------------------|-------------------|--
G--12---11-11---9-7-|--12---11-11---9-7-|--

G       A         D
We'll walk in fields of gold
G       A             D
We'll walk in fields of gold


{ Guitar solo }

e--10-9-7--------|--10-9-7-----------|-------------------|--
B----------10-10-|----------10-10/12-|--12--10-10----5/7-|--
G----------------|-------------------|-------------7-----|--
D----------------|-------------------|-------------------|--
A----------------|-------------------|-------------------|--
E----------------|-------------------|-------------------|--

e--10-9-7--------|--10-9-7---------|------------------|--
B----------10-10-|----------10--10-|--5-7-8--7-7--5---|--
G----------------|-----------------|----------------7-|--
D----------------|-----------------|------------------|--
A----------------|-----------------|------------------|--
E----------------|-----------------|------------------|--


{ Fast fingering again }

Bm                            G
Many years have passed since those summer days
D
Among the fields of barley
Bm                  G        D
See the children run as the sun goes down
G         A             D
Among the fields of gold


Bm                  G
You'll remember me when the west wind moves
D
Upon the fields of barley
Bm                  G       D
You can tell the sun in his jealous sky
G         A             D
When we walked in fields of gold

G         A             D
When we walked in fields of gold
G         A
When we walked in fields of gold

D  G  { 7 times }
D

Вверх


Fragile

Вступление:
|Em11|A/B|Bm7/E|A/B||
|Em7 |Am7|B7 |Em ||
|Em7 |Am7|B7 |Em ||

Em7                  Am7
If blood will flow when flesh and steel are one,
B7                          Em
Drying in the colour of the evening sun.
Em7                Am7
Tomorrow?s rain will wash the stains away,
B7                                 Em
But something in our minds will always stay.
Em7                              Am7
Perhaps this final act was meant to clinch a lifetime?s argument
B7                              Em
That nothing comes from violence and nothing ever could.
Em7                             Am7
For all those born beneath an angry star,
B7                          Em
Lest we forget how fragile we are.

Припев:
AmC          Baug
On and on the rain will fall
Em
Like tears from the star, like tears from the star.
AmC          Baug
On and on the rain will say
Em
How fragile we are, how fragile we are.

||: Em7 |Am7 |B7 |Em7 |
|Em7 |Am7 |B7 |Em :||

Припев:

|Em11 |AB |Bm7E |AB |
|Bm7E |AB |Em ||

Вверх


If I Ever Lose My Faith

Intro:  F9/nr  D#7-5/nr  Dsus4  Cmin6/nr


Aadd9      A   Gadd9     G        Dadd9       D       Dadd9  D
You could say I lost my faith in science and progress
Aadd9      A              Gadd9       G           Dadd9  D  Dadd9  D
You could say I lost my belief in the holy church
Aadd9      A   Gadd9     G                 Dadd9  D  Dadd9  D
You could say I lost my sense of direction
Aadd9  A       F#7sus4          F#m7
You could say all of this and worse but


Esus4  E  F#7sus4  F#7      G  G/A
If I ever lose my faith in you
Esus4       E      F#7sus4  F#7      G6   A7sus A7/11
There'd be nothing left for me to do


Some would say I was a lost man in a lost world
You could say I lost my faith in the people on TV
You could say I'd lost my belief in our politicians
They all seemed like game show hosts to me

If I ever lose my faith in you
There'd be nothing left for me to do


G6  Em  G6  Em  G6  Em  G6  Em


F#m        C#sus4            E9/nr  Bsus    Bsus4    C#sus4  F#
I could be lost inside their lies without a trace
C#sus4  D7-5/nr  F#m9
But every time I close my eyes I see your face


Aadd9    A    G            Gadd9   Dsus4  D  Dsus4  D  Dadd9
I never saw no miracle of science
Aadd9    A           G          Gadd9      Dsus4  D  Dsus4  D  Dadd9
That didn't go from a blessing to a curse
Aadd9    A    G            Gadd9   Dsus4  D  Dsus4  D  Dadd9
I never saw no military solution
Aadd9 A            F#7sus4              F#m7
That didn't always end up as something worse but


Esus4   E        D6
Let me say this first


Bsus4  B  C#7sus4  C#7      D
If I ever lose my faith in you
D/E
If I ever lose my faith in you
Bsus4       B      C#7sus4  C#7   D
There'd be nothing left for me to do
D/E
There'd be nothing left for me to do


Esus4  E  F#7sus4  F#7
If I ever lose my faith
G          G/A
If I ever lose my faith
Esus4  E  F#7sus4  F#7
If I ever lose my faith
G6         A7sus A7/11  A7sus A7/11
If I ever lose my faith              in you


G6  Em


----------------------------------------------------------------------------

Chords used:

F9/nr    x05585
D#7-5/nr x05685
Dsus4    x05785
Cmin6/nr x05885
Aadd9    x02200
A        x02220
Gadd9    300203  or  xx5435
G        320003
Dadd9    xx0230
D        xx0232
F#7sus4  242422
F#m7     242222
Esus4    022200
E        022100
F#7      242322
G/A      500003
G6       320000
A7sus    x02030
A7/11    x00020
C#sus4   444674  or  244x24
E9/nr    xx4474
D7-5/nr  4x4574
F#m9     002122
D6       xx0202
Bsus4    x24452
B        x24442
C#7sus4  x46474
C#7      x46464
D/E      000232

Вверх


La Belle Dame
Sans Regret

(3)--------3---2-|-----------2---2-|-----------2---0-|-----------0---0-|
---1---1---------|---1---1---------|---0---0---------|---0---0---------|
---2---2---------|---2---2---------|---0---0---------|---0---0---------|
-----------------|-----------------|-----------------|-----------------|
-0-------0-------|-2-------2-------|-----------------|-----------------|
-----------------|-----------------|-0-------0-------|-0-------0-------|
1 2 3 4 5 6 7 8   1 2 3 4 5 6 7 8   etc.
-----------0---3-|-----------2---5-|-----------4---7-|-----------7---3-|
---1---1---------|---1---1---------|---0---0---------|---0---0---------|
---2---2---------|---2---2---------|-----------------|-----------------|
-----------------|-----------------|---6---6---------|---6---6---------|
-3-------3-------|-2-------2-------|-----------------|-5-------5-------|
-----------------|-----------------|-0-------0-------|-----------------|

-----------3---2-|-----------2---2-|---5---3---2---0-|-----------0---0-|
---2---2---------|---1---1-------0-|-----------------|---0---0---------|
---3---3---------|---2---2-------0-|--(0)-(0)-(0)----|---0---0---------|
-----------------|-----------------|-----------------|-----------------|
-4-------4-------|-3-------3-------|-----------------|-----------------|
-----------------|-----------------|-0-------0-------|-0-------0-------|
________________
/Intro
-----------0---0-|---------------0-|-----------0-----|---------------3-|
---0---0---------|---0---0---4-----|---0---0-------0-|---0---0---0-----|
---0---0---------|---0---0---------|---0---0-------0-|---0---0---------|repeat
-----------------|-----------------|-----------------|-----------------|from %
-0-------0-------|-2-------2-------|-----------------|-----------------|
-----------------|-----------------|-0-------0-------|-0-------0-------|
________________
/1. repeat verse
-----------0---0-|-----------0-----|---------------0-|-----------0---3-|
---0---0---------|---1---1-------4-|-----------4-----|---0---0---------|
---0---0---------|---0---0---------|---3---3---------|-----------------|repeat
-----------------|-1-------1-------|---5---5---------|---4---4---------|from %
-4-------4-------|-----------------|-----------------|-5-------5-------|
-----------------|-----------------|-4-------4-------|-----------------|
________________
/2. repeat verse
-----------0---0-|---------------0-|-----------------|-----------0---0-|
---0---0---------|---0---0---4-----|---0---0---0---0-|---0---0---------|
---0---0---------|---0---0---------|---0---0---0---0-|---0---0---------|
-----------------|-----------------|-----------------|-----------------|
-0-------0-------|-2-------2-------|-----------------|-4-------4-------|
-----------------|-----------------|-0-------0-------|-----------------|
$
-----------0---0-|---------------0-|-----------------|-----------------|
---0---0---------|---0---0---4-----|---0---0---0---0-|---0---0---0---0-|
---0---0---------|---0---0---------|---0---0---0---0-|---0---0---0---0-|
-----------------|-----------------|-----------------|-----------------|
-3-------3-------|-2-------2-------|-----------------|-----------------|
-----------------|-----------------|-0-------0-------|-0-------0-------|
The part with the piano accompaniment without vocals is played like the
whole verse, just without the high voice, and the middle voice 4x every
bar. (Note that now you can play some notes on the 0th or 1st fret instead
of the 4th-5th.)
-----------------|-----------------|-----------------|-----------------|
---1---1---1---1-|---1---1---1---1-|---0---0---0---0-|---0---0---0---0-|
---2---2---2---2-|---2---2---2---2-|---0---0---0---0-|---0---0---0---0-| etc.
-----------------|-----------------|-----------------|-----------------|
-0-------0-------|-2-------2-------|-----------------|-----------------|
-----------------|-----------------|-0-------0-------|-0-------0-------|


After that: 2nd verse, ?til $, then:
-----------------|-------------------------------|
---0---0---0---0-|-------------------------------|
---0---0---0---0-|-------------------------------|
-----------------|-------------------------------|
-4-------4-------|-3---------------------2-------|
-----------------|-------------------------------|
"la belle ...    la belle dame sans ...
__________________
I
-----------------|-----------------|-----------------|-----------------|
-----------------|-----------------|---------------3-|---3-3-----1-----|
-0---0-----0---0-|---0---0---0-----|-0---0-----0---2-|---2-2-----2-----|
-0---0-----0-----|-----------------|-2---2-----2---1-|---1-1-----1-----|
---------------4-|---4---4---4-----|-3---3-----3-----|-2-------2-------|
-0-------0-------|-0-------0-------|-5-------5-------|-----------------|
...                      re-grets ..."
Repeat to fade: (with variations)
-----------------|-----------------|-----------------|-----------------|
---0---0---0---2-|---0---0---0---0-|---0---0---0---0-|---3-3-----3---3-|
---0-0-0---0---0-|---0---0---0---0-|---0-0-0---0---0-|---2-2-----2---2-|
-----------------|-----------------|-----------------|---1-1-----1---1-|
-----------------|-----------------|-0-------0-------|-2-------2-------|
-0-------0-------|-0-------0-------|-----------------|-----------------|

Lyrics: (Here are some English Translations)
1.
Dansons tu dis
Et moi, je suis
Mes pas sont gauches
Mes pieds tu fauches
Je crain le sots
Je cherche les sots
Pour m?expliquer ta vie, alors
Tu ments, ma soeur
Tu brises mon coeur
Je pense, tu sais
Erreurs, jamais
J?ecoute, tu parles
Je ne comprends pas bien
La Belle Dame sans Regrets
2.
Je pleure, tu ris
Je chante, tu cries
Tu semes les grains
D?un mauvais chene
Mon ble s?envole
Tu en a ras le bol
J?attends, toujour
Mes cris sont sourds
Tu ments, ma soeur
Tu brises mon coeur
Je pense, tu sais
Erreurs, jamais
J?ecoute, tu parles
Je ne comprends pas bien
La Belle Dame sans Regrets


La Belle Dame Sans Regrets - transcribed by Harold
Noriega
Belle Dame Sans Regrets is in the Key of G with the Capo on 3.
It is a very simple song with only 3 sections that repeat. Since
I am not very skilled in the French language, I will provide you
with the sections and you can apply the lyrics accordingly:


Introduction:
Am7     B7      Em      Em7
Am7     B7      E       E7
A9/C#   B7?     Em      Em7
Cmaj7   B7      Em


Lyrics:  *
Am7     B7      Em      Em7
Am7     B7      E       E7
A9/C#   B7?     Em      Em7
Dim4    Am?     Am4     Gm?
Am7     B7      E       E7
A9/C#   B7?     Em      Em7
Cmaj7   B7      Em
Cmaj7   B7      Em
*  Repeat with instrumental section and also with
second lyric section

Ending:

Cmaj7        B7                    Em    Em7
La Belle Dam sans. . . . . .Regrets
Cmaj7        B7             Em      Em7. . . . . .Repeat to fade. . .


Chords:
Am7             002010
B7              021202
Em              022000
Em7             020000
E               022100
E7              020100
A9/C#           042000
B7?             031200
Cmaj7           032000
Dim4            045450
Am?             555550
Am4             405540
Gm?             333453

Вверх


Mad About You

Am                      Am/C
A stone's throw from Jerusalem
Fmaj7                              Eaug
I walked a lonely mile in the moonlight
Am                     Am/C
And though a million stars were shining
Fmaj7                               Eaug
My heart was lost on a distant planet
Am                      Am/C
That whirls around the April moon
Fmaj7                   Eaug
Whirling in an arc of sadness
Am                   Am/C   E                     Eaug
I'm lost without you      I'm lost without you
Fmaj7                   Dm7
Though all my kingdoms turn to sand
Adim7          E
And fall into the sea
Am           Am/G        F        E   Am
I'm mad about you      I'm mad about you

And from the dark secluded valleys
I heard the ancient songs of sadness
But every step I thought of you
Every footstep only you
And every star a grain of sand
The leavings of a dried up ocean
Tell me, how much longer? How much longer?

They say a city in the desert lies
The vanity of an ancient king
But the city lies in broken pieces
Where the wind howls and the vultures sing
These are the works of man
This is the sum of our ambition
It would make a prison of my life
If you became another's wife
With every prison blown to dust
My enemies walk free
I'm mad about you   I'm mad about you

Cadd9                         E7aug
And I have never in my life
Asus4
Felt more alone than I do now
A#                               F
Although I claim dominions over all I see
C/E
It means nothing to me
Dm7
There are no victories
Adim7                E     E7
In all our histories, without love

A stone's throw from Jerusalem
I walked a lonely mile in the moonlight
And though a million stars were shining
My heart was lost on a distant planet
That whirls around the April moon
Whirling in an arc of sadness
I'm lost without you   I'm lost without you
Fmaj7                Dm7
And though you hold the keys to ruin
Adim7        E
Of everything I see
Fmaj7         Dm7
With every prison blown to dust,
Adim7        E
My enemies walk free
Fmaj7             Dm7
Though all my kingdoms turn to sand
Adim7          E
And fall into the sea
Am           Am/G        F        E   Am
I'm mad about you      I'm mad about you

Вверх


Shape Of My Heart

F#m    E     D    C#m
F#m    E     D    C#m
D            A    C#m
D      C#m   F#m

1.    He deals the cards as a meditation
And those he plays never suspect
He  doesn?t play for the money he wins
He doesn?t play for respect
He deals the cards to find the answer
The sacred geometry of chance
The hidden law of a probable outcome
The numbers lead a dance

Chorus:
I know that the spades are the swords of a soldier
I know that the clubs are weapons of war
I know that diamonds mean money for this art
But that?s not the shape of my heart

2.    He may play the jack of diamonds
He may lay the queen of spades
He may conceal a king in his hand
While the memory of it fades

Chorus:
I know that the spades are the swords of a soldier
I know that the clubs are weapons of war
I know that diamonds mean money for this art
That?s not the shape of my heart
That?s not the shape, shape of my heart

Bridge
C#m  Hm  A  G#m
C#m  Hm  A  G#m
A               E   G#m
A       G#m  C#m

3.    And if I told you that I loved you
You?d maybe think there?s something wrong
I?m not a man of too many faces
The mask I wear is one.
Those who speak know nothing
And find out to their cost
Like those who curse their luck in too many places
And those who fear are lost.

Chorus:
I know that the spades are the swords of a soldier
I know that the clubs are weapons of war
I know that diamonds mean money for this art
But that?s not the shape of my heart
That?s not the shape of my heart
That?s not the shape, shape of my heart

Вверх


Shape Of My Heart (2
вариант)

INTRO:
Em               D6             A5             B7sus4  B7
E|--3---------3---|-2--------2---|--------------|--------------|
B|--------0-------|------0-------|-5--------5---|-5-------4----|
G|*-----0-------0-|----2-------2-|------2-------|-----2------2-|
D|*-2-------2-----|-0------0-----|----2-------2-|--------------|
A|----------------|--------------|-0------0-----|-2-------2----|
E|----------------|--------------|--------------|--------------|
C/E            D6             A5             B7sus4  B7
E|-3--------3---|-2--------2---|--------------|----------------|
B|------1-------|------0-------|-5--------5---|-5-------4------|
G|----0-------0-|----2-------2-|------2-------|-----2------2---|
D|-2------2-----|-0------0-----|----2-------2-|----------------|
A|--------------|--------------|-0------0-----|-2-------2----2-|
E|--------------|--------------|--------------|----------------|
C                C             Gsus4 G          B7
E|------0-------3-|----0--------|----------------|-------------|
B|----------1-----|-------1-----|-h1-----0-------|--------4----|
G|----0-------0---|----0------0-|--0---------0---|-----2-------|
D|----------------|-------------|------0-------0-|-----4-----4-|
A|-h3-----3-------|-3-----3-----|----------------|-2------2----|
E|----------------|-------------|--3-------3-----|-------------|
C                 Am              * Em               Em
E|-0-----0---------|-0---------------|-0--------------|-------||
B|-1-----1---------|-1---------------|-0--------------|-------||
G|-0-----0---------|-2---------------|-0--------------|------*||
D|-----2-------2---|-2---------------|-2--------------|------*||
A|-3-------3-------|-0---------------|-2--------------|-------||
E|-----------------|-----------------|-0--------------|-------||

He deals the cards as a meditation
And those he plays never suspect
He doesn't play for the money he wins
He doesn't play for respect

He deals the cards to find the answer
The sacred geometry of chance
The hidden law of a probable outcome
The numbers lead a dance

CHORUS: [guitar repeats intro tab]
I know that the spades are swords of a soldier
I know that the clubs are weapons of war
I know that diamonds mean money for this art
But that's not the shape of my heart

He may play the jack of diamonds
He may lay the queen of spades
He may conceal a king in his hand
While the memory of it fades

CHORUS [up to point marked * in the intro tab]

INTERLUDE: [begins at point marked * in the intro tab]
* Em              Em7            C/E             Asus2/F#
E|-0-------0-----|--------------|---------------|--------------|
B|-0-------0-----|-3------3-----|-1-------1-----|-0-------0----|
G|-0-------0-----|-0------0-----|-0-------0-----|-2-------2----|
D|-----2-------2-|-----2------2-|-----2-------2-|-----2------2-|
A|---------------|--------------|---------------|--------------|
E|-0-------------|-0------------|-0-------------|-2------------|
heart                         That's not the     shape.......
Asus2/F#          Asus2/F#          Asus2/F#
E|-----------------|-----------------|------------------------||
B|-0-------0-------|-0-------0-------|-0-------0--------------||
G|-2-------2-------|-2-------2-------|-2-------2--------------||
D|-----2-------2---|-----2-------2---|-----2-------2----------||
A|-----------------|-----------------|------------------------||
E|-2---------------|-2---------------|-2----------------------||
shape of my
Bm                A6              Em             F#7sus4 F#7
E|-----------------|---------------|--------------|------------|
B|-3---------3-----|-2---------2---|-0--------0---|------------|
G|-------4---------|-------2-------|------0-------|-4-----3----|
D|-----4-------4---|-----4-------4-|----2-------2-|----2-----2-|
A|-2-------2-------|-0-------0-----|--------------|------------|
E|-----------------|---------------|-0------0-----|-2-----2----|
heart
Gmaj7/B         A6             Em              F#7sus4 F#7
E|---------------|--------------|---------------|--------------|
B|-3---------3---|-2--------2---|-0---------0---|--------------|
G|-------0-------|------2-------|-------0-------|-4-----3------|
D|-----4-------4-|----4-------4-|-----2-------2-|----2-----2---|
A|-2-------2-----|-0------0-----|---------------|--------------|
E|---------------|--------------|-0-------0-----|-2-----2----2-|

G                  G             D/F#            F#7
E|------------------|-------------|---------------|------------|
B|--------0-------3-|----0--------|-------3-------|-------2----|
G|------------0-----|--------0----|---2-------2---|----3-----3-|
D|------0-------0---|----0------0-|-----0-------0-|----2-----2-|
A|------------------|-------------|---------------|------------|
E|-h3-------3-------|-3------3----|-2-------2-----|-2-----2----|

G               F#              G              G/F#
E|---------------|---------------|--------------|--------------|
B|-0-------------|---------------|------0-------|------0-------|
G|-------2---0---|---------------|----------0---|----------0---|
D|-----0-------0-|-4-----2---0---|----0-------0-|----0-------0-|
A|---------------|-----1-------1-|-2------------|--------------|
E|-3-------3-----|-2-------2-----|-3------3-----|-2------2-----|

Em                F#7               G                 G
E|-7-----5---3-----|-2---------------|-----------------|------||
B|-----------------|-------5---3-----|-0---------------|------||
G|-----------------|-----------------|-0---------------|------||
D|-----2-------2---|-----2-------2---|-0---------------|------||
A|-----------------|-----------------|-2---------------|------||
E|-0-------0-------|-2-------2-------|-3---------------|------||

And if I told you that I loved you
You'd maybe think there's something wrong
I'm not a man of too many faces
The mask I wear is one

Those who speak know nothing
And find out to their cost
Like those who curse their luck in too many places
And those who fear are lost

CHORUS [up to point marked * in the intro tab]

ENDING: [begins at point marked * in the intro tab]
* Em              Em7             C/E                Asus2/F#
E|-0-------0-----|---------------|----------------|------------|
B|-0-------0-----|-3-------3-----|-1-------1------|-0-----0----|
G|-0-------0-----|-0-------0-----|-0-------0------|-2-----2----|
D|-----2-------2-|-----2-------2-|-----2--------2-|----2-----2-|
A|---------------|---------------|----------------|------------|
E|-0-------------|-0-------------|-0--------------|-2----------|
heart                           That's not the   shape of my
Em              Em7             C/E                Asus2/F#
E|-0-------0-----|---------------|----------------|------------|
B|-0-------0-----|-3-------3-----|-1-------1------|-0-----0----|
G|-0-------0-----|-0-------0-----|-0-------0------|-2-----2----|
D|-----2-------2-|-----2-------2-|-----2--------2-|----2-----2-|
A|---------------|---------------|----------------|------------|
E|-0-------------|-0-------------|-0--------------|-2----------|
heart                           That's not the   shape of my
Em               D6              A5              B7sus4  B7
E|-3---------3----|-2---------2---|---------------|------------|
B|-------0--------|-------0-------|-5---------5---|-5-----4----|
G|-----0-------0--|-----2-------2-|-------2-------|----2-----2-|
D|---------2------|-0-------0-----|-----2-------2-|------------|
A|----------------|---------------|-0-------0-----|-2-----2----|
E|-0--------------|---------------|---------------|------------|
heart
C/E            D6             A5             B7sus4  B7
E|-3--------3---|-2--------2---|--------------|----------------|
B|------1-------|------0-------|-5--------5---|-5-------4------|
G|----0-------0-|----2-------2-|------2-------|-----2------2---|
D|-2------2-----|-0------0-----|----2-------2-|----------------|
A|--------------|--------------|-0------0-----|-2-------2----2-|
E|--------------|--------------|--------------|----------------|
Em
E|-0---------------|-----------------||
B|-0---------------|-----------------||
G|-0---------------|-----------------|| Fine.
D|-2---------------|-----------------||
A|-2---------------|-----------------||
E|-0---------------|-----------------||

Вверх


Shape Of My Heart (3
вариант)

Em                Hm                 Am                       H
3002x0            20x0xx             01220x                   23332x
e--3--------3-----|--2--------2-----|--0--------0-----|--0-----0--|--------|--
B--------0-----0--|--------0-----0--|-----------------|-----------|--4-----|--
G-----------------|-----------------|--------2-----2--|-----------|-----4--|--
D--2--2-----------|--0--0-----------|-----------------|-----------|--------|--
A-----------------|-----------------|--0--0-----------|--0--0-----|--2-----|--
E-----------------|-----------------|-----------------|-----------|--------|--

C/E                Hm                 Am                       H
3102x0            20x0xx             01220x                  23332x
e--3--------3-----|--2--------2-----|--0--------0-----|--0-----0--|--------|--
B--------1-----1--|--------0-----0--|-----------------|-----------|--4-----|--
G-----------------|-----------------|--------2-----2--|-----------|-----4--|--
D--2--2-----------|--0--0-----------|-----------------|-----------|--------|--
A-----------------|-----------------|--0--0-----------|--0--0-----|--2-----|--
E-----------------|-----------------|-----------------|-----------|--------|--

C                                H7          C        B7 ?   Em
35553x                           24242x      35553x   00212x 00220
e---------------3--------|-------------|-----------|-----------|--0--|--0--|-
B---------5--------5-----|-------1--0--|--------4--|--5--5--5--|--0--|--0--|-
G---------------------5--|-------0--0--|--------2--|--5--5--5--|--2--|--0--|-
D------5-----5-----------|-------0--0--|-----4-----|--5--5--5--|--1--|--2--|-
A---3--------------------|--2^0--------|--2--------|--3--3--3--|--2--|--2--|-
E------------------------|-------3--3--|-----------|-----------|--0--|--0--|-


He deals the cards as a meditation
And those he plays never suspect
He doesn?t play for the money he wins
He doesn?t play for respect

He deals the cards to find the answer
The sacred geometry of chance
The hidden law of a probable outcome
The numbers lead a dance

I know that the spades are swords of a soldier
I know that the clubs are weapons of war
I know that diamonds mean money for this art
But that?s not the shape of my heart

He may play the jack of diamonds
He may lay the queen of spades
He may conceal a king in his hand
While the memory of it fades

I know that the spades are swords of a soldier
I know that the clubs are weapons of war
I know that diamonds mean money for this art
But that?s not the shape of my heart

Em  Em7  C              B7
That?s not the shape    The shape of my heart

And if I told you that I loved you
You?d maybe think there?s something wrong
I?m not a man of too many faces
The mask I wear is one

Those who speak know nothing
And find out to their cost
Like those who curse their luck in too many places
And those who smile are lost

I know that the spades are swords of a soldier
I know that the clubs are weapons of war
I know that diamonds mean money for this art
But that?s not the shape of my heart

Em  Em7  C               B7         Em
That?s not the shape of my heart
Em7  C              B7
That?s not the shape   The shape of my heart

e----12--|--
B---12---|--
G--12----|--

Вверх


Why Should I Cry For
You

G
Fsus2  C  G
Gadd9  G
Gadd9  G


G         Em        C
Under the dog star sail
G        Em         C
Over the reefs of moonshine
G         Em        C
Under the skies of fall
Bm            C                   D
North, north west, the stones of Faroe


Under the Arctic fire
Over the seas of silence
Hauling on frozen ropes
For all my days remaining


Em      C              D
But would north be true?


{ Chorus : "ehhhh..." }
All colours bleed to red
Asleep on the ocean's bed
Drifting in empty seas
For all my days remaining


Em      C              D
But would north be true?
Em                C
Why should I?
D
Why should I cry for you?


G            Em7    C
Dark angels follow me
G       Em7     C
Over a godless sea
G             Em      C
Mountains of endless falling,
Bm   C             D
For all my days remaining,


Em  C             D
What would be true?


Em           C             D
Sometimes I see your face,
Em                 C               D
The stars seem to lose their place
Em          C            D
Why must I think of you?
Em           C
Why must I?
G
Why should I?
Em       C
Why should I cry for you?
G             Em       C
Why would you want me to?
G                 Em       C
And what would it mean to say,
Bm        C               D
That, "I loved you in my fashion"?


G              D
What would be true?
Em            C
Why should I?
D              G
Why should I cry for you?

Fsus2  C  G



Chords used:
G      320003
Fsus2  033011
C      032010
Em     022000
Bm     224432
D      x00232
Em7    020000

Вверх