The Beatles

Across The Universe
Act Naturally
A Day In The Life
A Hard Days Night
A Hard Days Night (2 вариант)
All Ive Got To Do
All My Loving
All My Loving (2 вариант)
All My Loving (3 вариант)
All Together Now
All You Need Is Love
And I Love Her
And Your Bird Can Sing
Anna
Ask Me Why
A Taste Of Honey
Baby Its You
Babys In Black
Babys In Black (2 вариант)
Baby Youre A Rich Man
Back In The USSR
Back In The USSR (2 вариант)
Ballad Of John And Yoko
Band On The Run
Beatles At The Bbc Album
Because
Being For The Benefit Of Mr. Kite
Birthday
Black Bird
Black Bird (2 вариант)
Bluebird
Cant Buy Me Love
Cant Buy Me Love (2 вариант)
Child Of Nature
Come Together
Cry Baby Cry
Day Tripper
Dear Prudence
Dear Prudence (2 вариант)
Dig It
Dont Let Me Down
Do You Want To Know A Secret
Drive my car
Drive My Car (2 вариант)
Eight Days A Week
Eight Days A Week (2 вариант)
Eleanor Rigby
Eleanor Rigby (2 вариант)
Everybodys Got Something To Hide Except For Me And My Monkey
Fixing A Hole
For No One
For You Blue
Free As A Bird
From Me To You
Get Back
Getting Better
Girl
Girl (2 вариант)
Girl (3 вариант)
Give Peace A Chance
Glass Onion
Golden Slumbers
Good Day Sunshine
Goodnight
Happiness Is A Warm Gun
Hello Goodbye
Help!
Help! (2 вариант)
Help! (3 вариант)
Helter Skelter
Here Comes The Sun
Here There And Everywhere
Her Majesty
Her Majesty (2 вариант)
Hey Bulldog
Hey Jude
Hide Your Love Away
I Am The Walrus
I Call Your Name
I Dig A Pony
I Dont Want To Spoil The Party
I Dont Want To Spoil The Party (2 вариант)
I Feel Fine
I Feel Fine (2 вариант)
If I Fell
If I Needed Someone
Ill Be Back
Ill Be On My Way
Ill Cry Instead
Ill Follow The Sun
Ill Follow The Sun (2 вариант)
Ill Follow The Sun (3 вариант)
Ill Get You
Imagine
Im A Loser
I me mine
Im Happy Just To Dance With You
Im Looking Through You
Im Looking Through You (2 вариант)
I’m Only Sleeping
Im So Tired
In My Life
I Saw Her Standing There
I Saw Her Standing There (2 вариант)
I should have known better
It’s for you
Its Only Love
Ive Got A Feeling
Ive Just Seen A Face
I Want To Hold Your Hand
I Will
I Will (2 вариант)
Jealous Guy
Julia
Just Like Starting Over
Lady Madonna
Let It Be
Longer
Long Long Long
Lovely Rita
Love Me Do
Lucy In The Sky With Diamonds
Magical Mystery Tour
Maxwells Silver Hammer
Mean Mr. Mustard
Michelle
Michelle (2 вариант)
Misery
Money
Mother Natures Son
My Bonnie
Nobody I Know
No More Lonely Nights
No Reply
No Reply (2 вариант)
Norwegian Wood
Nowhere Man
Nowhere Man (2 вариант)
Ob-La-Di Ob-La-Da
Octopuss Garden
Octopuss Garden (2 вариант)
Oh Darling
One And One Is Two
Paperback Writer
Penny Lane
Piggies
Please Please Me
Please Please Me (2 вариант)
Polytheme Pam
Polytheme Pam (2 вариант)
P.S. I Love You
Real Love
Revolution
Rocky Racoon
Rocky Racoon (2 вариант)
Sergeant Peppers Lonely Hearts Club Band
Sexy Sadie
She Loves You
She Said She Said
Something
Strawberry Fields Forever
Strawberry Fields Forever (2 вариант)
Taxman
Tell Me Why
Thank You Girl
Thats Alright Mama
The Continuing Story Of Bungalow Bill
The End
The Fool On The Hill
The Fool On The Hill (2 вариант)
The Inner Light
The Long And Winding Road
The Long And Winding Road (2 вариант)
Things We Said Today
Think For Yourself
This Boy
Ticket To Ride
Ticket to ridе
Till There Was You
Twist And Shout
Two Of Us
Wait
We Can Work It Out
We Can Work It Out (2 вариант)
When Im Sixty Four
While My Guitar Gently Weeps
While My Guitar Gently Weeps (2 вариант)
Why Dont We Do It
With A Little Help From My Friends
With A Little Help From My Friends (2 вариант)
Yellow submarine
Yesterday
Yesterday (2 вариант)
You Cant Do That
You Know My Name
Youre Gonna Lose That Girl
Your Mother Should Know
You Wont See Me
Вверх

Across The Universe

Intro:
E|-2---/10----9-7-5--------------------------------------------|
B|---------7--2-2-2-2-2-2-2-2-----------2----------------------|
G|-2---/11----9-7-6---2-4-2-4-2-4-2--4--2--4--2--4--2--4--2--4-|
D|---0------0---------4-4-4-4-4-4-4--4--2--2--2--2--2--2--2--2-|
A|------------x-x-x-x-x-x-x-x-0---0-----0-----0----------------|
E|------------2---2---2---2------------------------------------|

D                 Bm               F#m
Words are flowing out like endless rain into a paper cup
Em7                                    A                  A7
They slither while they pass they slip away across the Universe.
D                Bm               F#m
Pools of sorrow, waves of joy are drifting through my opened
mind
Em7              Gm
Possessing and caressing me.

D             A7sus4
Jai Guru Deva Om
A7
Nothings gonna change my world
G			  D
Nothings gonna change my world
A7
Nothings gonna change my world
G			  D
Nothings gonna change my world

D	  Bm		     F#m	   		    Em7
Images of broken light which dance before me like a million eyes
A		   A7
They call me on and on across the Universe.
D		 Bm		 F#m
Thoughts meander like a restless wind inside a letterbox
Em7			       A                 A7
They tumble blindly as they make their way across the Universe.

D               A7sus4
Jai Guru De Va  Om
A7
Nothings gonna change my world
G			  D
Nothings gonna change my world
A7
Nothings gonna change my world
G                         D
Nothings gonna change my world

D                   Bm			F#m
Sounds of laughter, shades of earth are ringing through
my opened ears
Em7	     Gm
Inciting and inviting me.
D	     Bm		      F#m			      Em7
Limitless, undying love which shines around me like a million
suns
A	     A7
And calls me on and on across the Universe.

D             A7sus4
Jai Guru Deva Om
A7
Nothings gonna change my world
G			  D
Nothings gonna change my world
A7
Nothings gonna change my world
G			  D
Nothings gonna change my world

D
Jai Guru Deva.  (Repeat)

Вверх

Act Naturally

Intro:
D                               G
e|-------------------------------3----3--3---------------------|
B|--3---------1-----7---------7--3h5--5--5p3--3----------------|
G|--0--------------0--h2-----------7--h9------------------4--0-|
D|-----4--2--0---------------0---------------------------------|
A|------------------------------------------------------75-----|
D|--------------------------------------------------/9---------|

Verse:
G                           C
Theyre gonna put me in the movies
G                                  D
Theyre gonna make a big star out of me
G                                              C
Theyll make a film about a man thats sad and lonely
D                        G
And all I gotta do is Act Naturally.

Middle:
D                      G
Well I bet you Im gonna be a big star
D                           G
I might win an Oscar  You can never tell
D                         G
The movies gonna make me a big star
A                       D
Cos I can play the part so well.

Verse:
Well make a film about a man thats sad and lonely
And begging down upon his bended knee
Ill play the part  But I wont need rehearsin
Cos all I gotta do is Act Naturally.

Guitar Solo (play this twice):
D                         G
e|-------------------------------------------------------------|
B|-------------------------------------------------------------|
G|-------------------------------------------------------------|
D|--0------------0---------5--5--------------------------------|
A|---------3------------3--------b(7)5-------------------------|
D|--5--4--2--0-----/7-----0-----/7------------------7b(9)--5---|

Well I bet you Im gonna be a big star
I might win an Oscar  You can never tell
The movies gonna make me a big star
Cos I can play the part so well.

Well I hope you come and see me in the movies
Then I know that you will plainly see
The biggest fool that ever hit the big time
And all I gotta do is Act Naturally.

Ending:
D                          G
e|-------------------------------------------------------------|
B|-------------------------------------------------------------|
G|-------------------------------------------------------------|
D|--0------------4-------4--5--5-------------------------------|
A|---------3--------5/7-----------b(7)5------------------------|
D|--5--4--2--0-----/7-----0--------------------------7b(9)--5--|

Assorted guitar licks:

Example licks for verse:
Theyre gonna put me in the movies
e|-----3----3--------------------------------------------------|
B|-----0----0----------------------1---------------1-----------|
G|-----0----0----------------------0---------0-----0---------0-|
D|-------0----------------0--h2-----------0--h2----------------|
A|----------0---2---3---------------3--------------------------|
D|--5-------------5--------------------------------------------|

Theyre gonna make a big star out of me
e|----------3---------3----------------------------------------|
B|----------0---------0----------------------------------------|
G|----------0---------0--------------------0---------0---------|
D|--------------------------------0--h2-----2--0---------------|
A|------------------------------------------------3--2--0------|
D|--5--------------------5---5----4--2--0----------------------|

Theyll make a film about a man thats sad and lonely
e|-3------3----------3-----------------------------------------|
B|-0------0----------0-----------------------------------------|
G|-0------0----------0-----------------0-------0--0--0-------0-|
D|----------------------------------------0h2-----------0h2----|
A|---------------------------0---2---3-------------------------|
D|-------5-------------------5---------------------------------|

And all I gotta do is Act Naturally
e|2---------2----------------------------|
B|3---------3-----------------5--3-------|
G|2---------2------------2/4--------4--0-|
D|------0--------------------------------|
A|---------------------------------------|
D|---------------------------------------|

Example licks for middle part:
Well I bet you Im gonna be a big star     I might
e|---------------------------------------------------|
B|-3---3---------------------------------------------|
G|-2---2------------------0-------0--0--0--0-------0-|
D|-0---0---------------------0h2--------------0h2----|
A|--------------2--4--5------------------------------|
D|---------0-------------0---------------------------|

..win an Oscar  You can never tell (repeat above)

The movies gonna make me a big star     Cos I
e|-----------------------------------------------|
B|-----------------------------------------------|
G|-----------------------------------------------|
D|-------------5-----5-----5-----5-----6-------7-|
A|-----------------------------------------------|
D|-0--2--4--5-----5-----5-----5-----6-----7------|

can play the part so well.
e|----------------------------|
B|----------------------------|
G|----------------------------|
D|-----12------10-----9-----7-|
A|----------------------------|
D|-12------10------9-----7----|

One other famous lick:
Then I know that you will plainly see
e|--------------------------------------------|
B|--------------------------------------------|
G|--------------------------------------------|
D|-----------------------------0--------------|
A|----------------------0--h2-----2--p0-------|
D|-5----4--2----0--3h4-------------------4--5-|

Вверх

A Day In The Life

 G(III) Hm   C   C+  G+ C(III)
e|--3--|-2-|-x-|-0-|-3-|--3--|
B|--3--|-3-|-1-|-1-|-3-|--5--|
G--4--|-4-|-0-|-0-|-0-|--5--|
D|--5--|-4-|-2-|-2-|-0-|--5--|
A|--5--|-2-|-3-|-3-|-2-|--3--|
E|--3--|-2-|-3-|-0-|-3-|--3--|

G(III)  Hm  Em  C  C+

G(III)      Hm            Em
I read the news today oh boy
C                      C+            [G+]
About a lucky man who made the grade
G(III)          Hm              Em
And though the news was rather sad
C                       Em
Well I just had to laugh
C         Em
I saw the photograph.
G(III)       Hm            Em
He blew his mind out in a car
C                          C+                [G+]
He didn?t notice that the lights had changed
G(III)      Hm                Em
A crowd of people stood and stared
C                       Em
They?d seen his face before
Em
Nobody was really sure
C(III)
If he was from the House of Lords.

G(III)   Hm            Em
I saw a film today oh boy
C                     C+              [G+]
The English Army had just won the war
G(III)      Hm             Em
A crowd of people turned away
C                  Em
But I just had to look
C(III)
Having read the book.
C(III)
I?d love to turn you on.

D
Woke up, fell out of bed,
Dragged a comb across my head
Found my way downstairs and drank a cup,
And looking up I noticed I was late.
Found my coat and grabbed my hat
Made the bus in seconds flat
Found my way upstairs and had a smoke,
Somebody spoke and I went into a dream.

G(III)      Hm            Em
I read the news today oh boy
C                        C+                  [G+]
Four thousand holes in Blackburn, Lancashire
G(III)          Hm                 Em
And though the holes were rather small
C                       Em
They had to count them all
Em                                                        C(III)
Now they know how many holes it takes to fill the Albert Hall.
C(III)
I?d love to turn you on...

Вверх

A Hard Days Night

          G     C9                        F              G
Its been A Hard Days Night and Ive been working like a do
C9    G                     F               G
Its been A Hard Days Night I should be sleeping like a lo
C                          D
But when I get home to you I find the things that you do wil
G     C9  G
make me feel al-right

You know I work all day to get you money to buy things
And Its worth it just to hear you say
youre gonna give me evrything
So why I love to come home Cause when
I get you alone you know Ill be O.K.

Bm   Em                      Bm
When I home evrything seems to be alright
G    Em                     C      D
When Im home feeling you holding me tight, tight,yeah

So why I love to come home Cause when
I get you alone you know Ill be O.K.

G      C9   G
You know I feel al---right

Вверх

A Hard Days Night (2 вариант)

             C    F      C                   Bb             C
Its been a hard days night, and Ive been working like a dog,
F      C                  Bb             C
Its been a hard days night, I should be sleeping like a log,
F                            G7
But when I get home to you, I find the things that you do,
C   F  C
Will make me feel alright.
C    F   C               Bb                C
You know I work all day, to get you money to buy you things,
F        C                 Bb    C
And its worth it just to hear you say, youre gonna give
me e erything.
F                                G7
So why on earth should I moan, cause when I get you alone,
C  F C
You know Ill be okay.
Em   Am                      Em
When Im home, everything seems to be right;
C     Am                     F      G7
When Im home, feeling you holding me tight, tight, yeah.
C    F      C                   Bb             C
Its been a hard days night, and Ive been working like a dog,
F      C                  Bb             C
Its been a hard days night, I should be sleeping like a log,
F                            G7
But when I get home to you, I find the things that you do,
C    F    C
Will make me feel all right,
F    C
You know I feel all right,
C    F   Bb   C
You know I feel all right

Вверх

All Ive Got To Do

        Am          C
Whenever I want you around, yeah,
Am     Dm
All I gotta do, is call you on the phone,
Dmi7
And youll come running home,
Fm               C
Yeah thats all I gotta do.

And when I, I wanna kiss you yeah,
All I gotta do is whisper in your ear
the words you want to hear,
And Ill be kissing you.

{Middle:}
F
And the same goes for me, whenever you want me at all,
Am
Ill be here, yes I will, whenever you call,
F                  C   Am
You just gotta call on me, yeah,
F                  C
You just gotta call on me.

And when I, I wanna kiss you, yeah,
All I wanna do is call you on the phone,
and youll come running home,
Yeah thats all I gotta do.
Am                 C
Hm-m-m-m-m-m-m m-m-m-m-m.

Вверх

All My Loving

            F#m           B7
Close your eyes and Ill kiss you
E           C#m
Tomorrow Ill miss you
A           F#m       D   B7
Remember Ill always be true
F#m        B7
And then while Im away
E          C#m
Ill write home every day
A           B7        E
And Ill send all my loving to you

Ill pretend that Im kissing
the lips I am missing
nd hope that my dreams will come true
And then while Im away
Ill write home every day
And Ill send all my loving to you

CHORUS:
C#m   C+             E
All my loving I will send to you
C#m    C+             E
All my loving, darling Ill be true

VERSE ONE, CHORUS

C#m            E
All my loving, all my loving ...

C+: x 3 2 1 1 0

Вверх

All My Loving (2 вариант)

           Em             A7         D           Hm
Close your eyes and I'll kiss you, tomorrow I'll miss you.
G           Em         C
remeber I'll alwas be true.
Em       A7               D          Hm
And then while I'm away, I'll write home ev'ry day
G            A7       D
and I'll send all my loving to you.

Em             A7          D        Hm
I'll pretend, that I'm kissing the lips I am missing
G                Em                C
and hope that, my dreams will come true.
Em       A7               D          Hm
And then while I'm away, I'll write home ev'ry day
G            A7       D
and I'll send all my loving to you.

Ref.:
Hm      F#7          D
All my loving I will send tu you.
Hm      F#7            D
All my loving, darling I#ll be true.

Вверх

All My Loving (3 вариант)

Verse 1(Walking Bass Line):

G|-------------------------------------------------|
D|-4--2--1-----------------------------------------|
A|----------4--2--0--------------2-----4--4-----4--|
E|-------4--2--0--4-----4--------4-----------------|

G|-----------------------------------------------|
D|---------2--4--4-----4--0--0--0--0-------------|
A|0--0--4-----------4-----------------2--2--2--2-|
E|-----------------------------------------------|

G|-----------------------------------------|
D|-4--2--1---------------------------------|
A|----------4--2--0---------2----4--4----4-|
E|-------4--2--0--4----4----4--------------|

G|---------------------------------|
D|----------2--------4-----2-------|
A|-0--0--4-----2--2-----2-----4--2-|
E|----------------------4--0-------|

Verse 2:

Repeat Verse 1

Chorus (Walking Bass Line):
G|----------------------------------------|
D|--------------2--2--------2--2-----2----|
A|--4--4--------3--3-----3--------2--2--2-|
E|--------4--4--------4-------------------|

G|----------------------------------------|
D|--------------2-------------------------|
A|--4--4--------3--3-----3-----4--2-------|
E|--------4--4--------4--------------4--0-|

Guitar Solo (bass is playing this during solo):
G|-2--------------------------------------|
D|-------2--4-----4--2-----2--------------|
A|-0--4-----------------4-----4--2--2--4--|
E|----------------------4--0--4-----------|

G-------------------------------|
D|-4--2--1-----------------2----|
A|-4--2--0-----------4--2-------|
E|----------4--2-----------4--0-|

Verse 3:

Repeat Verse 1

Вверх

All Together Now

 F                    C7
One, two, three, four, can I have a little more?
F                           C7           F
Five, six, seven, eight, nine, ten, I love you.
F         C7
A, B, C, D, can I bring a friend to tea?
F               C7      F
E, F, G, H, I, J, I love you.

F            Bb                         F
Bom, bom, bom, bom-pa-bom, sail the ship, bom-pa-bom,
chop the tree.
Bb                       C7
Bom-pa-bom, skip the rope, bom-pa-bom, look at me.

F                                C7                F
All together now, all together now, all together now,
all together now...

Вверх

All You Need Is Love
mp3

 G    D     Em    G    D     Em    D7    G    D7
Love, love, love. Love, love, love. Love, love, love.

G                     D               Em
Theres nothing you can do that cant be done.
G             D                  Em
Nothing you can sing that cant be sung.
D7            G                           D7
Nothing you can say but you can learn how to play the game.
Its easy.

Theres nothing you can make that cant be made.
No one you can save that cant be saved.
Nothing you can do but you can learn how to be you in time.
Its easy.

{soc}
G     Am7     D7    G       Am7     D7
All you need is love, all you need is love,
G      B7     Em     G     C      D7      C
All you need is love, love, love is all you need.
{eoc}

c:repeat Intro

c:Chorus

Theres nothing you can know that isnt known.
Nothing you can see that isnt shown.
Nowhere you can be that isnt where, youre meant to be.
Its easy.

c:Chorus

All you need is love (all together now)
All you need is love (everybody)
All you need is love, love, love is all you need.

Вверх

And I Love Her

Tab1 (1,2,4,5 куплеты):
E|-------------------------------------------------------------|
B|--------3-1-4---------3--1-------3-1-4-4-1-------------------|
G|---0-1------------0-1--------0-1------------6-5-3----------0-|
D|-3-------------3-----------3---------------------------------|
A|---------------------------------------------------1--1--3---|
E|-------------------------------------------------------------|

Tab2 (3 куплет):
E|-------------------------------------------------------------|
B|-------------3-------------3---------------------------------|
G|-0-0-0-3---------3-0-3--------3-0-3-----0-3-0----------------|
D|-----------------------------------------------3-------------|
A|-------------------------------------------------------------|
E|-------------------------------------------------------------|

Проиграйте эту партию баса в начале и в конце песни.
А дальше -  как хотите
По крайней мере, так начинают Битлз играть эту песню...

G|------------------------------------|
D|-------1--0-------------1--0--------|
A|--1------------3----1------------3--|
E|------------------------------------|

Вступление (2 раза):
Акк:  Fm               Eb (или Cm7 - оба варианта подходят)
Бас- партия      Бас-партия

Fm         Cm
I give her all my love
Fm          Cm
That?s all I do
Fm          Cm
And if you saw my love
Ab             B
You?d love her too
Eb
I love her

She gives me ev?rything
And tenderly
The kiss my lover brings
She brings to me
And I love her

Gm          B
A love like ours
Cm7         Gm
Could never die
Gm         Cm
As long as I
B
Have you near me

(Спеть 2 раза последний куплет. Между двумя запевками вставить
Таб.1 без голоса)
Bright are the stars that shine
Dark is the sky
I know this love of mine
Will never die
And I love her

Окончание:
Акк:  Fm               Eb (или Cm7 - оба варианта подходят)
Бас- партия      Бас-партия
Fm               С (Теперь уже только этот)
Бас- партия      Бас-партия

Вверх

And Your Bird Can Sing

Intro:
E                             B  R           B
E|-------------------------------------------------------------|
B|-9-7-5-7-5-4-5-4-2-0-----0-2-99-9-10-9--------12-12----------|
G|-9-8-6-8-6-4-6-4-2-1-212-1-2-99-9-10-9-9----9-11-13-11-9-----|
D|---------------------424----------------9-11------------11-9-|
A|--------------------------------------------------------12-11|
E|0------------------------------------------------------------|

Verse:
E
You tell me that youve got every thing you want
And your bird can sing
F#m  A            E
But you dont get me  You dont get me

Fill riff:
B
E|--------------------------|
B|--------12-12-------------|
G|------9-11-13-11-9--------|
D|-9-11--------------11-9---|
A|-------------------12-11--|
E|--------------------------|

Verse:
You say youve seen seven wonders   And your bird is green
But you cant see me   You cant see me

Middle:
When your prize po--sessions      start to weigh you   down
G#m            G+            B/F#            C#/F
E|--------4--------------3---------------2---------------------|
B|------4-4-4----------4-4-4----------4--4-4---------7-6-------|
G|----4-------6-4---4--------6-4---4---------6-4-----6-6-6-----|
D|-6--------------5--------------4-----------------6-------6---|
A|-----------------------------------------------8-----------8-|
E|-------------------------------------------------------------|

E               F#m                                  B
Look in my di----rection Ill be round    Ill be round
E|-------0-------------2---------------2-----------------------|
B|-------0-0---------2-2-2-----------2-2-2-------------7-------|
G|-----------1-----2--------2------2--------2--------8-8-8-----|
D|---6-9-------2-4-------------4-4-------------4---9-------9---|
A|-7---------------------------------------------------------9-|
E|-----------------------------------------------7-------------|

Guitar Solo:
E
B  R           B
E|--------------------------------------------------7-7--------|
B|-9-7-5-7-5-4-5-4-2-0-------0-2-9-9-9-10-9-------5-7-9-7-5----|
G|-9-8-6-8-6-4-6-4-2-1-2-1-2-1-2-9-9-9-10-9-9-4-6-----------6--|
D|---------------------4-2-4-----------------------------------|
A|-------------------------------------------------------------|
E|-------------------------------------------------------------|

F#m              A                E
B  R
E|--2-4-5-7-5-4-2-0---0-2-4-5-6-9-11-12-12-12-14-12------------|
B|------------------4-------------------------------12---------|
G|--2-4-6-8-6-4-2-1---1-2-4-6-8-9-11-13-13-13-14-13-13-13------|
D|------------------4----------------------------------14-14---|
A|--------------------------------------------------------14---|
E|-------------------------------------------------------------|

Middle:
When your bird is broken   Will it bring you down?
You may be awoken   Ill be round   Ill be round

Verse:
Tell me that youve heard every sound there is
And your bird can swing
But you cant hear me   You cant hear me


Repeat guitar solo:
... then ...

End:
E                                                    A
E|-------------------------------------------------------------|
B|----9-7-5-7-5-4-5-----9-7-5-7-5-4-5-----9-7-5-7-5-4-5--2-----|
G|----9-8-6-8-6-4-6-----9-8-6-8-6-4-6-----9-8-6-8-6-4-6--2-----|
D|-------------------------------------------------------2-----|
A|-------------------------------------------------------------|
E|--0-----------------0-----------------0----------------------|

(B = bend up first note to second... R = release first note
to second... in both cases pick only first note)

Magic E Chord for use in AYBCS.  Note that this is a real open,
twangy sounding E5 chord... sounds best on a Rickenbacker 325!
Also sounds great in Day Tripper.

E|---0---|
B|---0---|
G|---9---|
D|---9---|
A|---7---|
E|---0---|

Вверх

Anna

Intro (play twice... also play over D-Bm sections of verses):

D                     Bm                      D
E|----10--10--10--10--10--10--10--10--10--------------|
B|--------7-------------------------------------------|
G|-----7-----7----------------------------------------|
D|--7--------------7---8---9---8---9---8---9---8---7--|
A|----------------------------------------------------|
E|----------------------------------------------------|

Verse 1:
D   Bm                 D       Bm             D        Bm
Anna   you come and ask me girl    to set you free girl
D        Bm              Em      A7
You say he loves you more than me   so I will set you free
D      Bm              D   Bm
Go with him   (Anna)   Go with him

Verse 2:
D  Bm                 D      Bm                D        Bm
Anna   girl before you go now    I want you to know now
D       Bm              Em        A7
That I still love you so   but if he loves you more
D
Go with him

Middle:
G
All of my life    Ive been searching    for a girl
D
Wholl love me     like I     love her
G                         Gm
But every girl Ive ever had  breaks my heart and leave me sad
E7                                 A7
What am I   what am I   supposed to do    oh...


Verse 3:
D  Bm                 D        Bm
Anna   just one more thing girl
D      Bm                Em        A7
You give back your ring to me     and I will set you free
D
Go with him

Repeat middle part
Repeat verse 3
then...


Ending:
Bm             D      Bm
(Anna)  Go with him   (Anna)
D           Bm              D
You can go with him girl   (Anna)   Go with him

Вверх

Ask Me Why

Intro:
[this little lick also used over some E chords during verses]

E
E|------------------|
B|------------------|
G|------------------|
D|-------9--9-------|
A|----7-----------7-|
E|-7----------------|

Verse:

E  F#m  G#m  F#m                              E
I  love you        cos you tell me things I want to know
E  F#m  G#m  F#m                       E           G#7
And its true      that it really only goes to show that I know
C#m              A                F#m  B7
That I I I I  would never ever ever be blue
E  F#m    G#m  F#m                      E
Now youre mine      my happiness near makes me cry
E  F#m G#m  F#m                            E        G#7
And in  time        youll understand the reason why that I cry
C#m
Its not because Im sad
A                       E   E+  (e.g., 076550)
But youre the only love that Ive ever had

Middle:
A      B7                 E   E+
I cant believe   its happened to me
A     B7               E     B7
I cant conceive   of any more misery

Verse:
E  F#m G#m              F#m
Ask me  why   Ill say I love you  [second time jump to ending]
G#m                A   E   E+
And Im always thinking of you

[now repeat from the middle]

Ending:

G#m A   E    A
E|-----------------|
B|-----------------|
G|-----------------|
D|-----9--9--------|
A|--7-----------7--|
E|-----------7-----|
And Im always thinking of you you

E           A       G#m
E|----------------------------------------------|
B|----------------4--4--------------------------|
G|----------------------4--4--4--4--------------|
D|-------9--9-----------------------------6--6--|
A|----7-----------7-----------------------------|
E|-7-----------4--------------------------------|
you

Вверх

A Taste Of Honey

          Am      C            G           Am
A taste of honey, tasting much sweeter than wine

Am      C          G7       D
I dream of your first kiss and then
Am    C       G7       D
I feel apart, my lips are gettn
Am      C            G           Am
A taste of honey, tasting much sweeter than wine

Chorus:
A      C        D         Em
I will return, yes I will return
F          G        Am
Ill come back for the honey and you.

Those was a kiss that avowed my heart
They ring (in) still, though you far will part
A taste of honey, tasting much sweeter than wine

Вверх

Baby Its You

 G                 Em
Sha la la la la la la   (3xs)
C
Is not the way you smile
G
that touched my heart.
C
Its not the way you kiss
G
that tears apart.
Em
But how many many many nights go by
Am                                  G             Em
I sit alone at home and i cry over you.What can I do?
C             D                    G   Em         G
Cant help myself cause baby its you. Baby its you.

C                                    G
You should hear what they say about you    cheat  cheat
C                                            G
They say they say you never never ever been true
Em
Wo ho it doesnt matter what they say
Am
I know Im gonna love you any old way
G             Em
What can I do then its true.
C                   D
Dont want nobody nobody
G    Em         G
Cause baby its you.  Baby its you.

Solo Chords: |:Em|C|D|G|G|D|G| :||

Вверх

Babys In Black

Chorus:
F       C7
Oh dear, what can I do,
Bb7                C7
Babys in black and Im feeling blue,
F   Bb7        F  C7
Tell me oh, what can I do.

F                   F7                Bb
She thinks of him and so she dresses in black
F      C7              F
And though hell never come back, shes dressed in black.

Chorus:

I think of her, but she thinks only of him,
And though its only a whim, she thinks of him.

Middle:
Dm    G7                 Bb       C7
Oh, how long will it take, till she sees the mistake
F           C7
she has made, dear, what can I do,
Bb7               C7
Babys in black and Im feeling blue,
F  Bb7        F  C7
Tell me oh, what can I do.

repeat verse 1 & Chorus, ending Bb F instead of C7.

Вверх

Babys In Black (2 вариант)

E(1)        H7
Oh dear, what can I do?
A6 A7                       H7
Ba-by?s in black and I?m feeling blue,
E(1) H7             E    A7
Tell me, oh   what can I do?
E(1)                             E7           A
She thinks of him and so she dresses in black,
E(1)
And though he?ll never come back,
H7                      E
She?s dressed in black.

Oh dear, what can I do?
Baby?s in black and I?m feeling blue,
Tell me, oh what can I do?
I think of her, but she thinks only of him,
And though it?s only a whim,
She thinks of him.

F#m7sus4      F#m7
Oh, how long will it take,
A          H7(1)                      E(1)
Till she sees the mistake she has made?
H7
Dear what can I do?
A6 A7                      H7
Baby?s in black and I?m feeling blue,
E(1) H7             E    A7
Tell me, oh  what can I do?

Oh, how long will it take,
Till she sees the mistake she has made?
Dear what can I do?
Baby?s in black and I?m feeling blue,
Tell me, oh  what can I do?

She thinks of him and so she dresses in black,
And though he?ll never come back,
She?s dressed in black.
Dear what can I do?
Baby?s in black and I?m feeling blue,
Tell me, oh  what can I do?

Used chords:

E(1) E   E7   H7  H7(1) A6   A7    A  F#m7 F#m7sus4
e|--4----0----7----2----5----2----0----5----6----7--|
b|--0----0----5----4----4----2----2----5----5----5--|
G|--1----1----7----2----2----2----0----6----6----6--|
D|--2----2----6----4----4----2----2----7----1----1--|
A|--x----2----x----2----2----0----0----7----1----1--|
E|--0----0----0----x----x----x----x----5----x----x--|

Вверх

Baby Youre A Rich Man

G7         C/G    4X
G                        C/G
How does it feel to be  one of the beau - ti ful
G7                                   F               G7
people Now that you know who you are what do you want to be
C           G7                     F             G7
And have you traveled very far Far as the eye can see


How does it feel to be one of the beautiful people
How often have you been there   often enough to know
What did you see when you were there nothing that doesnt show


CHORUS
C              G                       C
Baby youre a rich man, baby youre a rich man
G                      C             Bbdim         G7/B
Baby youre a rich man too       You keep all your money in a
C                        G7                 C
big brown bag inside a zoo what a thing to do
G                       C
Baby youre a rich man, baby youre a rich man,
G                       C
baby youre a rich man too


How does it feel to be one of the beautiful people
Tuned to a natural E       happy to be that way
Now that youve found another key   what are you going to play

CHORUS

Bbdim = xx2323
G7/B = x20001

Вверх

Back In The USSR

E
A                       D
Flew in from Miami Beach BOAC
C                      D
Didn?t get to bed last night
On the way the paper bag was on my knee
Man, I had a dreadful flight

A
I?m back in the USSR
C                            D
You don?t know lucky you are, boy,
A   E
Back in the USSR

paralel with chorus:
E|-5--3----------8--6----------10--8---------------------------|
B|-5--3--7-------8--6--10------10--8--12---------3---4---5-----|
G|---------5/6------------8/9------------10/11---2---3---4-----|
D|-------------------------------------------------------------|
A|-------------------------------------------------------------|
E|-------------------------------------------------------------|

Been away so long I hardly knew the place
Gee, it’s good to be back home
Leave it till tomorrow to unpack my case
Honey, disconnect the phone

I?m back in the USSR
You don?t know lucky you are, boy,
Back in the US… Back in the US… Back in the USS

D
Well the Ukraine girls really knock me out
A
They leave the West behind
D      Db            C         B
And Moscow girls make me sing and shout
E                            D                 A
That Georgia’s always on my-my-my-my-my-my-my-my-my mind
E
Oh come on

I?m back in the USSR
You don?t know lucky you are, boy,
Back in the USSR

Well the Ukraine girls really knock me out
They leave the West behind
And Moscow girls make me sing and shout
That Georgia’s always on my mind

Oh show me round your snow peaked mountains way down south
Take me to your daddy’s farm
Let me hear your balalaika’s ringing out
Come and keep your comrade warm

I?m back in the USSR
You don?t know lucky you are, boy,
Back in the USSR

Вверх

Back In The USSR (2 вариант)

riff:
E|-------------------------|
B|-------------------------|
G|---------------7--5------|
D|-7--5---------------8--5-|
A|-7--5---------------8--5-|
E|-------8--5--------------|

A                          D          C                      D
Flew in from Miami Beach B.O.A.C., didnt get to bed last night
A                       D               C
On the way a paper bag was on my knee, man I had a dreadful
D
flight

CHORUS
D                    A
Im back in the USSR
C                                D
You dont know how lucky you are, boy
D                 A          D   Eb   E

D/E             G/E
Back in the US, back in the US, back in the USSR

BRIDGE
A                        D
Well the Ukraine girls really knock me out
A
They leave the west behind
D      F#m/C#        Am/C           B7
And Moscow girls make me sing and shout
E7                           D7                     A
That Georgias always on my-mi-mi-mi-mi-mi-mi-mi-mi-mind

Been away so long I hardly knew the place,
Gee its good to be back home
Leave it till tomorrow to unpack my case,
Honey disconnect the phone

Show me round your snow peaked mountains way down south,
take me to your daddys farm
Let me hear you balalaikas ringing out,
come and keep your comrade warm

Eb xx5343
F#m/C# x44111
B7 x21202
D/E 000232
G/E 020003

Вверх

Ballad Of John And Yoko
mp3

Bass riff:

E and E7            A
|-----------|  |-------------|
|-----------|  |-------2-4-2-|
|------2-4-2|  |-0---4-------|
|0--4-------|  |-------------|

E
Standing in the dock at Southampton

Trying to get to Holland Or France
E7
The Man In the Mac said

You gotta go back

you know they didnt even give us a chance
A
you know it aint easy
E
you know how hard it can be
B7
the way things are going ...
E
theyre gonna crucify me.

Finally made the plane into paris
honeymooning down by the seine
peter brown called to say
you can make it ok
you can get married in gibraltar near spain ..

you know it aint easy.... etc

Drove from paris to the amsterdam hilton
talking in our beds for a week
the newspapers said
whatre you doing in bed
i said were only trying to get us some peace ...

you know it aint easy...etc

A
saving all your money for a rainy day
giving all your clothes to charity

B7
last nite the wife said
oh boy when youre dead
B
You dont take nothing with you but your soul

E
Think!

[final two verses corrected]

Made a lightning trip to Vienna
Eating chocolate cake in a bag
The newspapers said, "Shes gone to his head
They look just like two gurus in drag" ...CHORUS

Caught the early plane back to London
Fifty acorns tied in a sack
The men from the press say "We wish you success
Its good to have the both of you back"...CHORUS

Вверх

Band On The Run

verse
C                             Fmaj7
Well the rain exploded with a mighty crash as we fell into
C
the sun.
Fmaj7
And the first one said to the second one "there I hope youre
Em
having fun"

Chorus:
G           C    Em   C      Am                F
Band on the run. Band on the run.      And the jailer man and
C
sailor Sam
Fmaj7                      C    Fmaj7  C
were searching everyone for the band on the run,
Fmaj7 C    Fmaj7  C    Fmaj7
band on the run,
C     Fmaj7 C    Fmaj7  C    Fmaj7  C
band on the run,        band on the run.

final chorus:
Am       Fmaj7             Cmaj7
Well the county judge, who held a grudge,
Fmaj7
will search forever more
C    Fmaj7  C   Fmaj7   C    Fmaj7
for the band on the run, band on the run,
C   Fmaj7  C    Fmaj7  C   Fmaj7
band on the run
C    Fmaj7  C    Fmaj7
band on the run.
Em   G   C

Вверх

Beatles At The Bbc Album

[D][A]
[D]
Well, if your hands start aclappin and your fingers
start apoppin and your feet start amovin around.
[G7]
And if you start to swing and sway when the band starts
[D]
to play a real cool way out sound.
[A7]                         [G7]
And if you get to cant help it and you cant sit down
[A7]                      [G7]
You feel like you gotta move around.

{soc}
[G7]
You get a shot of Rhythm and Blues.
[D]
With just a little Rock and Roll on the side,
just for good measure.
[G7]
Get a pair of dancin shoes.
[A7]
Well, with your lover by your side dont you
know youre gonna have a rockin time, cmon!
{eoc}

[D]                        [G7]
Dont you worry bout a thing if you start to dance and sing
[D]
And chills comin up on you.
[G7]
And if the rhythm finally gets you and the beat gets you too
[A7]                        [D]
Well, heres something for you to do.

{soc}
Get a shot of Rhythm and Blues.
With just a little Rock and Roll on the side,
just for good measure.
Get a pair of dancin shoes.
Well, with your lover by your side dont you
know youre gonna have a rockin time, cmon!
{eoc}

Dont you worry bout a thing if you start to dance and sing
And chills comin up on you.
And if the rhythm finally gets you and the beat gets you too
Well, heres something for you to do.

{soc}
[G7]
Get a shot of Rhythm and Blues.
[D]
Get a pair of dancin shoes.
[G7]
Get a shot of Rhythm and Blues.
[A7]
Well, with your lover by your side dont you know
youre gonna have a rockin time, cmon!
{eoc}

Dont you worry bout a thing if you start to dance and sing
And chills comin up on you.
And if the rhythm finally gets you and the beat gets you too
[A]                       [D]
Well, heres something for you to do.
[A]                       [D]
Well, heres something for you to do.
[A]                       [D]  [A][D][A6]
Well, heres something for you to do.

Вверх

Because

E||-------0---------|-------0--------|-----------|-------------|
B||-----1---1-------|-----1---1------|---2-4-2---|---1-4-1-----|
G||---2-------2---2-|---2-------2---2|-2-------2-|-1-------1-1-|
D||-1-----------2-4-|-1--------------|-----------|-------------|
A||-4-----------4---|-4-----------4--|-----------|-------------|
E||-------------4---|

E|--------0---------|-------0---------|-------3--------|-----2-|
B|------2---2-------|-----1---1-------|-----2---2------|-------|
G|----2-------2---2-|---2-------2---2-|---0-------0--0-|--0----|
D|--------2---------|-1-----------2---|----------------|-------|
A|--0---------------|-4-----------4---|-0--------------|-------|
E|------------------|

E|-------2---------|-------2-1-------||
B|-----3---3-------|-----3-----------||
G|---2-------2---2-|---4-----------o-||
D|-0-----------4---|-0-------------o-||

Вверх

Being For The Benefit Of Mr. Kite

Bb A7 Dm G
Cm          G
For the benefit of Mr. Kite
Bb              Dm                 G
There will be a show tonight on trampoline
Cm           G
The Hendersons will all be there
Bb              Dm           A
Late of Pablo Fanques Fair- what a scene!
Dm              Dm/C
Over man and horses hoops and garters
Bb                  A7            Dm
Lastly through a hogshead of real fire!
Bb      A                     Dm    Gm  A7  Dm  G
In this way Mr. K. will challenge the world!

The celebrated Mr. K.
performs his feat on Saturday at Bishopsgate
he Hendersons will dance and sing
As Mr. Kite flies through the ring- dont be late!
Messrs. K. and H. assure the public
Their production will be second to none
Bb               A               Dm    F+  C  A
And of course Henry The Horse dances the waltz!
Dm F+  C  B  Em           G

The band begins at ten to six
When Mr. K. performs his tricks without a sound
And Mr. H. will demonstrate
Ten summersets hell undertake on solid ground
Weve been some days in preparation
A splendid time is guaranteed for all
And tonight Mr. Kite is topping the bill!
Dm  A  C  Em  A   Dm  A  C  Em B
Em  Em/G  C  B7  Em   C  B  Em
Em/G  C  B  Em  Em/G  C  B  Em

Вверх

Birthday

Intro:   A   A    D    A    E    A

A                         A
You say its your birthday its my birthday too, yeah
D                         A
They say its your birthday were gonna have a good time
E                         A
Im glad its your birthday Happy birthday to you

E
Yes were going to a party, party
E
Yes were going to a party, party
E
Yes were going to a party, party

{soc}
C                G
(birthday) I would like you to dance
C               G
(birthday) take a cha-cha-cha-chance
C                G
(birthday) I would like you to dance
C                   G       E7
(birthday) da-da-da... Dance
{eoc}

repeat intro riff

riff:  A    A

{c:Chorus}

repeat intro riff

A                          A
You say its your birthday  its my birthday too, yeah
D                        A
They say its your birthday were gonna have a good time
E                          A                     A  A  A
Im glad its your birthday Happy birthday to you

Вверх

Black Bird

5-я струна звучит на каждый такт, 2-я струна, нота Си,
извлекается третьим пальцем и звучит через один такт,
нота Соль, третья струна, извлекается третьим пальцем.

Притом, надо заметить, что открытая третья струна связывает все
аккорды, этот прием используеться во всей песни.

E|-------------------|---------------------------------------|
B|--0-----1-----3----|--12----12----12-----12----12----12----|
G|-----0-----0-------|------0----------0-------0----------0--|
D|-------------------|---------------------------------------|
A|--------0-----2----|--10-------10--------10-------10-------|
E|--3----------------|---------------------------------------|

G     Am    G/B     G
E|-------------------|---------------------------------------|
B|--0-----1-----3----|--12----12----12-----12----12----12----|
G|-----0-----0-------|------0----------0-------0-------------|
D|-------------------|---------------------------------------|
A|--------0-----2----|--10-------10--------10-------10-------|
E|--3----------------|---------------------------------------|

G       Am7      G/B     G
Black bird   singing in the dead of      night
E|---------------------|-------------------------------------|
B|-0-------1--------3--|----12----12---12-----12----12----12-|
G|-----0-------0-------|--------0---------0-------0----------|
D|---------------------|-------------------------------------|
A|-0------2-------10---|-10--------10------10----------------|
E|-3-------------------|-------------------------------------|

C    C#dim     D      D#dim     Em           Eb
Take these broken wings   and learn to fly.
E|-------3----------------5------|---------------------------|
B|-5--------------7--------------|-8----8---8---8----8---8---|
G|----0-------0------ 0--------0-|----0-------0----0-------0-|
D|-------------------------------|---------------------------|
A|-3-----4--------5-------6------|-7------7-----6------6-----|
E|-------------------------------|---------------------------|

D      C#dim          C                    Cm
All     your ____ life,
E|----------3------------------------------------------------|
B|-7-----------------5-------5---5-------------4-----4-----4-|
G|------0--------0---------0---------0---0----------0--------|
D|-----------------------------------------------------------|
A|-5--------4--------3---------3---------------3--------3----|
E|-----------------------------------------------------------|

you were only waiting  for this mo__ment to ar_ise.
E|-----------------------------------------------------------|
B|-3------3---3--2---2-----2-----1----1----1---0-----0---0---|
G|-----0-----------0----------0-----0---0----0-----0-------0-|
D|--------------------0--------------------------------------|
A|-2--------2----0------0----------------------3-------3-----|
E|-----------------------------------------------------------|

Intro: G(1)   Am7   G/B(1)  G(2)

1-st Verse:

G(1)	     Am7           G/B(1)    G(2)
Blackbird singing in the dead of night.
C          C#dim   D         D#dim  Em  Eb D  C#dim  C   Cm
Take these broken wings and learn to fly. All your life,
G/B(2)        A7               Gsus4/D    G(1)
you were only waiting for this moment to arise.

TRANSITION:   C    G/B(2)   A7     Gsus4/D    G(1)

2-nd Verse:
G(1)      Am7             G/B(1)  G(2)
Blackbird singing in the dead of night.
C          C#dim  D	   D#dim   Em  Eb  D   C#dim  C    Cm
Take these sunken eyes and learn to see.    All your life,
G/B(2)        A7               Gsus4/D      G(1)
you were only waiting for this moment to be free.


Chorus:
F   C/E  Dm   C  Bb6    C           F  C/E  Dm   C   Bb6  A7
Black - bird     fly,               Black - bird     fly,
Gsus4/D               G(1)   Am7  G/B(1)
Into the light of a dark black night.

GUITAR VERSE:

G(2)    C    C#dim    D    D#dim   Em     Eb
D    C#dim    C     Gm    G/B(2)  A7   Gsus4/D  G(1)

Chorus:
F   C/E  Dm   C  Bb6    C           F  C/E  Dm   C   Bb6  A7
Black - bird     fly,               Black - bird     fly,
Gsus4/D               G(1)   Am7  G/B(1)
Into the light of a dark black night.



TRANSITION:
G(1)   Am7    G/B(1)    G(2)      G(1)   Am7   G/B(1)
C    G/B(2)   A7    Csus4/D

3-rd Verse:

G(1)	     Am7           G/B(1)    G(2)
Blackbird singing in the dead of night.
C        C#dim   D      D#dim    Em  Eb   D   C#dim  C   Cm
Take these broken wings and learn to fly.  All your life,
G/B(2)        A7               Gsus4/D    G(1)
you were only waiting for this moment to arise.

End:
C    G/B(2)       A7                 Gsus4/D         G(1)
you were on___ly wai__ting for this mo____ment to a-rise.
C    G/B(2)       A7                 Gsus4/D         G(3)
you were on___ly wai__ting for this mo____ment to a-rise.

G(1)     Am7     G/B(1)   G(2) III  C  III   C#dim
1|------- |------- |------- |------- |------- |---3---
2|---0--- |---1--- |---3--- |---12-- |---5--- |-------
3|------- |------- |------- |------- |------- |-------
4|------- |------- |------- |------- |------- |-------
5|------- |---0--- |---2--- |---10-- |---2--- |---4---
6|---3--- |------- |------- |------- |------- |-------

D    V  D#dim  V  Em  VII  Eb  V    G/B(2)   Cm
1|------- |---5--- |------- |------- |------- |-------
2|---7--- |------- |---8--- |---8--- |---3--- |---4---
3|------- |------- |------- |------- |------- |-------
4|------- |------- |------- |------- |------- |-------
5|---5--- |---6--- |---7--- |---6--- |---2--- |---3---
6|------- |------- |------- |------- |------- |-------

C/E  VII  A7       Gsus4/D  F  VII   Dm   V   Bb6
1|------- |------- |------- |------- |------- |-------
2|---8--- |---2--- |---1--- |---10-- |---6--- |---3---
3|------- |------- |------- |------- |------- |-------
4|------- |------- |---0--- |------- |------- |-------
5|---7--- |---0--- |------- |---8--- |---5--- |---1---
6|------- |------- |------- |------- |------- |-------


G(3)
1|---3---
2|---0---
3|---0---
4|---0---
5|-------
6|---3---

Вверх

Black Bird (2 вариант)

 G         C              G
Blackbird singing in the dead of night,
C         A7      Am7     D#dim      Em   G+
Take these broken wings and learn to fly.
G   A9    C   Cm
All your life,
G  G          A7               C     D9    G
You were only waiting for this moment to arise.

G          C             G
Blackbird singing in the dead of night,
C          A7    Am7     D#dim     Em   G+
Take these sunken eyes and learn to see.
G   A9    C   Cm
All your life,
G             A7               C       D9   G
You were only waiting for this moment to be free.

F  Em  Dm  C  Bb  C
Black - bird, fly.
F  Em  Dm  C  Bb  A7
Black - bird, fly...

Dm        Dm7          G  C  G  C  G
Into the light of a dark, black night.

Вверх

Bluebird

A+                     Am7
Late at night when the wind is still
Gm                  C
I?ll come flying through your door
Gm                 C
And you?ll know what love is for

Chorus

C                Fmaj
I?m a Bluebird, I?m a Bluebird,
Bb6
I?m a Bluebird, I?m a Bluebird,
Yeah, yeah, yeah
Fmaj
I?m a Bluebird, I?m a Bluebird,
Bb6
I?m a Bluebird, yeah, yeah, yeah

Touch your lips with a magic kiss
And you?ll be a bluebird too
And you?ll know what love can do

Chorus

Dm            Dm/C     Dm7/B   A+
Bluebird, bluebird ah ha
Dm            Dm/C     Dm7/B   A
Bluebird, bluebird ah ha
Bb           Am7
Bluebird

Вверх

Cant Buy Me Love

 G#m  C#m  G#m  C#m
Cant buy me love, love, cant buy me
F#m7  B7
love.

E
Ill buy you a diamond ring my friend,
E7
if it makes you feel alright.
A7
Ill get you anything my friend,
E
if it makes you feel alright.
B7  A7
For I dont care too much for money,
B7  A7  E
for money cant buy me love.

Ill give you all Ive got to give, if you say you love me too.
I may not have a lot to give but what Ive got I give to you.
For I dont care too much for money,
for money cant buy me love.

{soc}
G#m  C#m  A7
Cant buy me love, evrybody tells me so.
E  G#m  C#m  F#m7  B7
Cant buy me love, no, no, no, no.
{eoc}

Say you dont need no diamond ring and Ill be satisfied.
Tell me that you want those kind
of things that money just cant buy.
For I dont care too much for money,
for money cant buy me love.

Вверх

Cant Buy Me Love (2 вариант)

               Em  Am   Em  Am
Can’t buy me love, oh, love oh,
Dm7  G
Can’t buy me love, oh.

C
I’ll buy you a diamond ring, my friend,

if it makes you feel all right,
F7
I’ll get you anything, my friend,
C
if it makes you feel all right.
G               F7
,Cause I don’t care too much for money,
C
for money can’t buy me love.
C
I’ll give you all I’ve got to give

if you say you love me too,
F7
I may not have a lot to give
C
but what I’ve got I’ll give to you.
G               F7
I don’t care too much for money,
C
for money can’t buy me love.

Em   Am   C
Can’t buy me love, oh, everybody tells me so.
Em   Am  Dm7          G
Can’t buy me love, oh, no, no, no, no!


Say you don’t need no diamond rings
and I’ll be satisfied,
Tell me that you want the kind of things
that money just can’t buy.
I don’t care too much for money,
for money can’t buy me love.


Can’t buy me love, oh, everybody tells me so.
Can’t buy me love, oh, no, no, no, no!


Say you don’t need no diamond rings
and I’ll be satisfied,
Tell me that you want the kind of things
that money just can’t buy.
I don’t care too much for money,
for money can’t buy me love.

Em   Am   Em   Am
Can’t buy me love, oh, love, oh,
Dm7 G C
Can’t buy me love.

Вверх

Child Of Nature

G Em D
D Em
G     Em              D
I was dreaming of the past
D7                       Em
And my heart was beating fast
Em6                   D
I began to lose control
Em                   C
I began to lose control

CHORUS:
G        Dm           C      D6?
I didn?t mean to hurt you
G         Dm              B
I?m sorry that I made you cry
G                Em        G6
I didn?t mean to hurt you
C          G
I?m just a nature?s children


I was feeling insecure
You might not love me any more
I was shivering inside
I was shivering inside
(chorus)

I was trying to catch your eyes
Thought that you were trying to hide
I was swallowing my pain
I was swallowing my pain
(chorus)

Вверх

Come Together
mp3

e|---------------------|
B|---------------------|
G|--------------10-----|
D|-0--0---------10--12-| thats the first rif
A|-------10/12---------| for the whole song
E|---------------------|

now this is the D boogie
e|------------|
B|------------|
G|------------|
D|-7--7--9--9-| note: all chords are down strums
A|-5--5--5--5-|
E|------------|

other chords

A 57xxxx
g#46xxxx i think
g 35xxxx
Bm7997xx

verse
D boogie
here come old flat top, he come grooving up slowly,
D boogie
he got joo joo eyeball, he one Holy roller
A                        g#
he got hair down to his knee          ****
G {strum only once at 1/8 of note}
got to be a joker he just do what he please


****
e|--------------|
B|--------------|
G|--------------|
D|--------------|  do this right after   cool
A|--7--6--6--5--|
E|--5--4--4--3--|

chorus
Bm              G
come together, right now,  over me

riff

here come old flat top, he come grooving up slowly
he got joo joo eyeball, he one Holy roller
he got hair down to his knee
got to be a joker he just do what he please

riff

he wair no shoe shine he got toe jam football
he got monkey finger he shoot co-ca cola
he say i know you, you know me
one thing i can tell you is you got to be free

chorus

he bag big production he got wal-rus gumboot
he got O-no sideboard he one spinal cracker
he got feet down below his knee
hold you in his armchair you can feel his disease

chorus

he roller coaster he got early warninghe
got muddy water he one Mo-jo filter
he say one and one and one is three
got to be good looking cause he so hard to see

chorus

1/4bend    full bend
e|------------------|
B|--13b-13-10--13b--|
G|------------------|
D|------------------|  played at end while singing
A|------------------|  "come together" at full bend cool
E|------------------|

Вверх

Cry Baby Cry

  G      Am   F                G
Cry baby cry make your mother sigh
Em7                A7     F
shes old enough to know better

Em      Em+7                  Em7
The king of Marigold was in the kitchen
Em6                 C7  G
cooking breakfast for the queen
Em               Em+7             Em7
The queen was in the parlour playing piano
Em6          C7
For the children of the king

CHORUS:
G       Am    F               G
Cry baby cry make your mother sigh
Em7                   A7       F       G
shes old enough to know better so cry baby cry

The king was in the garden picking flowers
For a friend who came to play
The queen was in the playroom painting pictures
For the childrens holiday ...CHORUS

The duchess of Kircaldy always smiling
And arriving late for tea
The duke was having problems with a message
At the local bird and bee ...CHORUS

At twelve oclock a meeting round the table
For a seance in the dark
With voices out of nowhere put on specially
By the children for a lark...CHORUS TWICE (end on Em)

Fm
Can you take me back where are people, can you take me back
Can you take me back where are people,
brother can you take me back
Can you take me back?
Oh can you take me where are people, can you take me back?

Em+7:  0 2 1 0 0 0   Em7: 0 2 2 0 3 0   Em6: 0 2 2 0 2 0

Вверх

Day Tripper
mp3

d|----------2-0----4-----0-2-2-0-----4-----0-2---------|
a|--------2------2-----2-----|---------2-------2-----2-|
E|-0--3-4--------------------|-0---3-4-----------------|

g|----------2-0----4-----0-2---------------------------|
d|--------2------2-----2-----2-0-----4-----0-2---------|
a|-0--3-4--------------------|---------2-------2-----2-|
E|---------------|-0---3-4-----------------------------|

E7
Got a good reason
For taking the easy way out
A7
Got a good reason
E7
For taking the easy way out now

F#
She was a day____ tripper
A one way ticket yeah
A7      G#7         C#
It took me so____ long to find out
B
But I found out

She?s a big teaser
she took me half the way there
She?s a big teaser
She took me half the way there now

She was a day tripper
A one way ticket yeah
It took me so long to find out
And I found out

Tried to please her
She only played one night stands
Tried to please her
She only played one night stands, now

She was a day tripper
A Sunday driver yeah
Took me so long to find out
And I found out

Day tripper
Day tripper yeah
Day tripper
Day tripper yeah

Вверх

Dear Prudence

D     x x 0 2 3 2        G/D  x x 0 4 3 3
D/C   x 3 x 2 3 2        A/D  x x 0 6 5 5
D/B   x 2 x x 3 2
D/A#  x 1 x x 3 2
D         D/C              D/B            D/A#
Dear Prudence                                won?t you come out
D              D/C              D/B            D/A#
to play                                           Dear
D              D/C              D/B            D/A#
Prudence                                       greet the brand
D              D/C              D/B            D/A#
new day                                           The
D              D/C              D/B            D/A#
sun is up, the sky is blue it?s beautiful, and so are you Dear
D              D/C              C              G
Prudence                  won?t you            come out to
D              D/C              D/B            D/A#
play
Dear Prudence  open up your eyes
Dear Prudence  see the sunny skies
The wind is low, the birds will sing
That you are part of everything
Dear Prudence  won?t you open up you eyes
D     G/D       A/D     G/D
Look around round
Look around round round
D     F    G#    G      D
Look around
Dear Prudence  let me see you smile
Dear Prudence  like a little child
The clouds will be a daisy chain
So let me see you smile again
Dear Prudence  won?t you let me see you smile

Вверх

Dear Prudence (2 вариант)

E|2------------|
B|--------3----|
G|----2--------|
D|--0--------0-|
A|0------------|
D|------0------| (using D chord below)

Intro and Fade Out      Melody (repeats)  Wont you come ou
E|--14-12-10-8--7--5--3--3-|-2--2--2--2--2--|  |--0--3--2--|
B|--12-10-10-8--8--7--5--5-|-3--3--3--3--3--|  |--1--0--3--|
G|--14-12-11-9--7--7--5--4-|-2--2--2--2--2--|  |--0--0--2--|
D|--0--0--0--0--0--0--0--0-|-0--0--0--0--0--|  |--2--0--0--|
A|--0--0--0--0--0--0--0--0-|-0--3--2--1--0--|  |--3--2--0--|
D|--0--0--0--0--0--0--0--0-|-0--0--0--0--0--|  |--0--0--0--|

Look around.......
E|--1--4--3-----|
B|--1--4--3-----|
G|--2--5--4-----|
D|--0--0--0-----|
A|--0--0--0-----|
D|--0--0--0-----|

"We are living in a stochastic house,
with the shades drawn and the windows up high..."

Вверх

Dig It

The chords (all open form): D - A - D - E  (over and over...)

...like a rolling stone...
...like a rolling stone...
...like a rolling stone...
...like the FBI
and the CIA...
and the BBC...
B.B. King...
and Doris Day...
Matt Busby...
Dig it...
Dig it...
Dig it...
(fade)

Вверх

Dont Let Me Down

E F#m F#m7 Amaj7/B E
Dont let me down Dont let me down Dont let me
F#m F#m7 Amaj7/B Esus4 E
down Dont let me down

Verse 5/4 time

E F#m7 F#m/B
Nobody ever loved me like she does oo she does yes she
E Esus4 E F#m
does And if somebody ever loved me like she do me oo she
F#m/B E Esus4
do me, yes she does

CHORUS

And from the first time that she really
done me oo she done me, she done me
good. I guess nobody ever really done me,
oo she done me, she does me good

CHORUS

BRIDGE 4/4 time

E B
Im in love for the first time Dont you know its gonna last.
B7 E
Its a love that lasts forever, Its a love that had no past

CHORUS

Вверх

Do You Want To Know A Secret

  Em                           Am    Em
Youll never know how much I really love you
G                            F      B6
Youll never know how much I really care
E   G#m-Gm-F#m      B7              E
Listen        do you want to know a secret
G#m-Gm-F#m      B7             E  G#m-Gm-F#m  B6/F
do you promise not to tell  woooooooooah
E   G#m-Gm-F#m      B7              E
Closer        let me whisper in your ear
G#m-Gm-F#m      B7                A   B7
say the words you long to hear
C#m    F#m  B6
Im in love with you   oooooooo
E      G#m-Gm-F#m          B7              E     G#m-Gm-F#m
Listen  (do dah do)  do you want to know a secret (do dah do)
B7           E    G#m-Gm-F#m  B6/F
do you promise not to tell (do dah do)  woah
E      G#m-Gm-F#m          B7              E  G#m-Gm-F#m
Closer (do dah do)  let me whisper in your ear (do dah do)
B7                A   B7
say the words you long to hear
C#m    F#m  B6
Im in love with you   ooooooo
A             F#m           C#m     Bm
Ive know the secret for the week or two
A      F#m  C#m     Bm F#m  B6
Nobody knows just we two
E      G#m-Gm-F#m          B7              E     G#m-Gm-F#m
Listen  (do dah do)  do you want to know a secret (do dah do)
B7           E    G#m-Gm-F#m  B6/F
do you promise not to tell (do dah do)  woah
E      G#m-Gm-F#m          B7              E  G#m-Gm-F#m
Closer (do dah do)  let me whisper in your ear (do dah do)
B7                A   B7
say the words you long to hear
C#m    F#m  B6  C#m
Im in love with you   ooooooo
F#m    B6     C#m
Ooooo  ooooo  ooooo  ooooo  ooooo
F#m    B6     C#m
Ooooo  ooooo  ooooo  ooooo  ooooo
F#m    B6     C#m
Ooooo  ooooo  ooooo  ooooo  ooooo

Вверх

Drive my car

Am7                   D
Asked a girl what she wanted to be
Am7                D
And she said baby, can't you see
Am7                    D
I want to be famous, a star on the screen
Em                          Em7+
But you can do something in between
F#m7                  Am7 Bm7 Cm7 Bm7 Am7

CHORUS: Baby you can drive my car

F#m7               Am7 Bm7 Cm7 Bm7 Am7
Yes I'm gonna be a star
F#m7                  Am7
Baby you can drive my car
Bm7    Em7+
And baby I love you

Am7                      D
I told that girl that my prospects were good
Am7                     D
And she said baby, it's understood
Am7                    D
Working for peanuts is all very fine
Em                   Em7+
But I can show you a better time

Вверх

Drive My Car (2 вариант)

Intro:
D
E|-----------------------------------------------------|
B|-----------6b(7)-----7--7--5-----5--7----------------|
G|-------5--5b(7)--5------------5--7--7--5-----5--7----|
D|----7---------------7---------------------7----------|
A|-----------------------------------------------------|
E|-----------------------------------------------------|

Verse:
Asked a girl    what she wanted to be
D                            G
E|-----------------------------------------------------|
B|-----------------------------------------------------|
G|-----------------------------------------------------|
D|-------7---------------------------------------------|
A|----5---------7/9-----97--5---------------------5----|
E|--------------------3------------5/7-----75--3-------|

She said baby             Cant you see
D                            G
E|-----------------------------------------------------|
B|-----------------------------------------------------|
G|-----------------------------------------------------|
D|-------7---------------------------------------------|
A|----5---------7/9-----97--5---------------------5----|
E|-------------------3------------5/7-----75--3--------|

I wanna be famous       a star of the screen
D                            G
E|-----------------------------------------------------|
B|-----------------------------------------------------|
G|-----------------------------------------------------|
D|--------7--------------------------------------------|
A|--5------------7/9-----97--5-----------------------5-|
E|--------------------3---------------5/7-----75--3----|

But you can do something in between
A                                            Bm
E|------------------------------------------------------|
B|------------------------------------------------------|
G|------------------------------------------------------|
D|------------------------------------------------------|
A|-7--7-----7--7----------------7--9--7-----------------|
E|-5--5-----5--5-----------7/9-----------9--7-----------|

Chorus:
Bm                       A  G                    A
Baby you can drive my       car    (see note)
E|------------------------------------------------------|
B|-----------------------3-----5--6--5-----3------------|
G|-----------------------4-----5--7--5-----4------------|
D|----9-----9--------9------9--7--5-----5-----5----5--7-|
A|----9-----9--------9------9--7--5-----5-----5----5--7-|
E|----7-----7--------7------7--5--3-----3-----3----3--5-|

Bm                    A  G                    A
Yes Im gonna be a      star
E|------------------------------------------------------|
B|--------------------3-----5--6--5-----3---------------|
G|--------------------4-----5--7--5-----4---------------|
D|----9-------9-----9----9--7--5-----5-----5-----5--7---|
A|----9-------9-----9----9--7--5-----5-----5-----5--7---|
E|----7-------7-----7----7--5--3-----3-----3-----3--5---|

Bm
Baby you can drive my car
E|----------------------------|
B|----------------------------|
G|----------------------------|
D|----9-----9--------9-----9--|
A|----9-----9--------9-----9--|
E|----7-----7--------7-----7--|

Em           A           D     G               A
And baby  I love you
E|-----------------------------------------------------------|
B|-----------------------------------------------------------|
G|-----------------------------------------------------------|
D|-----------------------------------------------------------|
A|---0-----------5--5-------5------------------7--9--7-------|
E|--0--2--3--0------3--2--0--------5/7-----75--3--5--7/9---9-|

Verse:
Told that girl that my prospects were good
She said baby, its understood
Working for peanuts is all very fine
But I can show you a better time

Repeat Chorus:

A                      D
Beep beep m beep beep YEAH!

Guitar solo:
D                           G
E|--b(10)8-------------------------------|
B|-------------b(10)8--6--8--8--8--6--8--|
G|-------6b(7)----------7----------------|
D|----7----------------------------------|
A|---------------------------------------|
E|---------------------------------------|

D                           G
E|--b(10)8-------------------------------------------|
B|-------------b(10)8--6--8--8--8--6-----------------|
G|-------6b(7)----------7-------------------------7--|
D|----7----------------------------------------------|
A|---------------------------------------------------|
E|---------------------------------------------------|

D                           G
E|--b(10)8-------------------------------|
B|-------------b(10)8--6--8--8--8--6--8--|
G|-------6b(7)----------7----------------|
D|----7----------------------------------|
A|---------------------------------------|
E|---------------------------------------|

A                                          Bm
E|------------------------------------------------------------|
B|----10--10b(13)--13--13b(15)--15--15b(18)--B(18)15--13--15--|
G|------------------------------------------------------------|
D|------------------------------------------------------------|
A|------------------------------------------------------------|
E|------------------------------------------------------------|

Repeat chorus:

Verse:
Told that girl I could start right away
She said listen to me baby I got something to say
I got no car and its breaking my heart
But I got a driver and thats a start

Repeat chorus:

Ending (repeat to fade):
D   G               A
Beep beep m beep beep YEAH!
E|---------------------------------------------|
B|---------------------------------------------|
G|---------------------------------------------|
D|---------------------------------------------|
A|--5--------5------------------7--9--7-----5--|
E|-------5/7-----75--3--5--7/9-----------9-----|

Вверх

Eight Days A Week
mp3

C / / / /

C        / D7    /
Ooh I need your love babe
F       / C     /
Guess you know its true
C      / D7      /
Hope you need my love babe
F      / C    /
Just like I need you

Am    / F   /
Hold me, love me
Am    / D7   /
Hold me, love me

C         / D7   /
Aint got nothin but love babe
F   / C    /
Eight days a week

C        / D7       /
Love you every day girl
F      / C /
Always on my mind
C       / D7     /
One thing I can say girl
F        / C  /
Love you all the time

Am    / F   /
Hold me, love me
Am    / D7   /
Hold me, love me

C         / D7   /
Aint got nothin but love babe
F   / C    /
Eight days a week

G   / /
Eight days a week
Am     / /
I love you
D7   / /
Eight days a week
F   / G7     /
Is not enough to show I care

C        / D7    /
Ooh I need your love babe
F       / C     /
Guess you know its true
C      / D7      /
Hope you need my love babe
F      / C    /
Just like I need you

Am    / F   /
Hold me, love me
Am    / D7   /
Hold me, love me

C         / D7   /
Aint got nothin but love babe
F   / C    /
Eight days a week

G   / /
Eight days a week
Am     / /
I love you
D7   / /
Eight days a week
F   / G7     /
Is not enough to show I care

C        / D7       /
Love you every day girl
F      / C /
Always on my mind
C       / D7     /
One thing I can say girl
F        / C  /
Love you all the time

Am    / F   /
Hold me, love me
Am    / D7   /
Hold me, love me

C         / D7   /
Aint got nothin but love babe
F   / C    /
Eight days a week
F   / C    /
Eight days a week
F   / C    /
Eight days a week

C / D7 / Dm7 / C /

Вверх

Eight Days A Week (2 вариант)
mp3

 Bb C7 Eb Bb
Ooh, I need your love, babe, guess I know its true.
C7 Eb Bb
Hope you need my love, babe, just like I need you.
Gm Eb Gm Eb
Hold me, love me, hold me, love me.
Bb C7 Eb Bb
Aint got nothing but love, babe, eight days a week.

Love you every day, girl, always on my mind.
One thing I can say, girl, love you all the time.
Hold me, love me, hold me, love me.
Aint got nothing but love, babe, eight days a week.

{soc}
F Gm
Eight days a week, I lo-o-o-o-ove you.
C7 Eb F7
Eight days a week, is not enough to show I care.
{eoc}

Вверх

Eleanor Rigby
mp3

{define: Bb6 1 3 3 3 3 1 1}
{define: Dm6 1 1 0 2 0 0 -1}

Bb                       Dm
Ah, look at all the lonely people!
Bb                       Dm
Ah, look at all the lonely people!

Dm
Eleanor Rigby,
Bb6
Picks up the rice in a church where a wedding has been,
Dm
Lives in a dream.
Dm
Waits at the window,
Bb6
Wearing the face that she keeps in a jar by the door,
Dm
Who is is for?

Dm7           Dm6
All the lonely people,
Bb              Dm
Where do they all come from?
Dm7          Dm6
All the lonely people,
Bb          Dm
Where do they all belong?

Father McKenzie,
Writing the words of a sermon that no one will hear,
No one comes near.
Look at him working,
Darning his socks in the night when theres nobody there,
What does he care?

All the lonely people,
Where do they all come from?
All the lonely people,
Where do they all belong?

Eleanor Rigby,
Died in the church and was buried along with her name,
Nobody came.
Father McKenzie,
Wiping the dirt from his hands as he walks from the grave,
No one was saved.

All the lonely people,
Where do they all come from?
All the lonely people,
Where do they all belong?

Вверх

Eleanor Rigby (2 вариант)
mp3

efine:
C  : 032010
C/G: 332010
Em : 022000
Em6: 022020
Em7: 022030

C/G                       Em
Ah, look at all the lonely people!
C/G                       Em
Ah, look at all the lonely people!

Em
Eleanor Rigby,
Picks up the rice in a church where a wedding has been,
Lives in a dream.
C
Waits at the window,
Wearing the face that she keeps in a jar by the door,
Em
Who is it for?

Em7           Em6
All the lonely people,
C               Em
Where do they all come from?
Em7           Em6
All the lonely people,
C              Em
Where do they all belong?

Father McKenzie,
Writing the words of a sermon that no one will hear,
No one comes near.
Look at him working,
Darning his socks in the night when there?s nobody there,
What does he care?

All the lonely people,
Where do they all come from?
All the lonely people,
Where do they all belong?

Eleanor Rigby,
Died in the church and was buried along with her name,
Nobody came.
Father McKenzie,
Wiping the dirt from his hands as he walks from the grave,
No one was saved.

All the lonely people,
Where do they all come from?
All the lonely people,
Where do they all belong?

Вверх

Everybodys Got Something To Hide Except For Me And My Monkey

Intro:
E|--4--5--9-----4--5--9-----4--5--9-----4--5--9--|
B|--5--5--10----5--5--10----5--5--10----5--5--10-|
G|--4--4--9-----4--4--9-----4--4--9-----4--4--9--|
D|-----------------------------------------------|
A|-----------------------------------------------|
E|-----------------------------------------------|

Verse:
E
Come on, come on, come on, come on

Come on its such a joy, come on, its such a joy

Come on lets make it easy, come on lets make it easy
A             D
Make it easy, make it easy
B7                                       E  D  G  E  G  D
Everybodys got something to hide except for me and my monkey

E|------------------------------------------------|
B|------------------------------------------------|
G|------------------------------------------------|
D|-----5--------7--5-------------------------etc.-|
A|--7-----5--7-----------5--7--7b(9)--5--7---etc.-|
E|--------------------7----------------------etc.-|

A
E|------------------------------------------------|
B|------------------------------------------------|
G|------------------------------------------------|
D|------------------------------------------------|
A|-7--7--9--9--7--7--9--9--7--7--9--9--7--7--9--9-|
E|-5--5--5--5--5--5--5--5--5--5--5--5--5--5--5--5-|
Take it easy

D
E|------------------------------------------------|
B|------------------------------------------------|
G|------------------------------------------------|
D|-7--7--9--9--7--7--9--9--7--7--9--9--7--7--9--9-|
A|-5--5--5--5--5--5--5--5--5--5--5--5--5--5--5--5-|
E|------------------------------------------------|
Take it easy

B7
E|------------------------------------------------|
B|------------------------------------------------|
G|------------------------------------------------|
D|-4--4--6--6--4--4--6--6--4--4--6--6--4--4--6--6-|
A|-2--2--2--2--2--2--2--2--2--2--2--2--2--2--2--2-|
E|------------------------------------------------|
Everybodys got something to hide except for me and my ...

E       D                G     E         G             D
E|---------10b(12)--b(12)10----------------15b(17)-b(17)15-----|
B|-/10---8-------------------8~-b(17)15-12---------------------|
G|-----9---------------------------------------------------14~-|
D|-------------------------------------------------------------|
A|-------------------------------------------------------------|
E|-------------------------------------------------------------|
..Monkey

What a great tune to jam with.

Вверх

Fixing A Hole

F C+ Fm7 (3 beats per chord)

Bb9 F C+ Fm7 Fm6
Im fixing a hole where the rain gets in and
Fm7 Fm6 Fm7 Fm6 Fm7 Fm6
stops my mind from wan - dering where it will go

Im filling the cracks that ran through the door and
kept my mind from wan - dering where it will go And it

F Gm/C F Gm/C
really doesnt matter if Im wrong Im right where I belong
F Gm/C F
Im right where I belong

C G C G
See the people standing there who disagree and never win and
C G C
wonder why they dont get in my door Im

F C+ Fm7 Fm6 Fm7
painting the room in a col - orful
way and when my mind is wan -
Fm6 Fm7 Fm6 Fm7
dering there I will go Oo oo oo ah

Silly people run around who worry me and never ask me
why they dont get past my door Im
taking the time to do a number of
things that werent important yes-
terday and I still go

Bb9 = x10111
C+ = xx3110
Gm/C = x3033x
Fm6 = xx0111
Fm7 = xx1111

Вверх

For No One

  C               Em
Your day breaks, your mind aches
Am            C/G              Fmaj7               Bb
You find that all her words of kindness linger on
C
When she no longer needs you

She wakes up, she makes up
She takes her time and doesnt feel she has to hurry
She no longer needs you

CHORUS:
Dm             A7
And in her eyes you see nothing
Dm                   A7     Dm
No sign of love behind the tears
A7
Cried for no one
Dm                       A7     Dm   G11 G7
A love that should have lasted years

You want her, you need her
And yet you dont believe her when she said her love is dead
You think she needs you ...CHORUS

You stay home, she goes out
She says that long ago she knew someone but now hes gone
She doesnt need him

Your day breaks, your mind aches
There will be time when all the things she said
will fill your head
you wont forget her ...CHORUS

G11: 3 x 0 2 1 1
C/G: 3 3 2 0 1 0

Вверх

For You Blue

E|-----------------------------------------------2--2-2--2-----|
B|-----------------------------------------------1--1-1--1-----|
G|--------------------------------------------2--2--2-2--2-----|
D|------2p0-----------2--2-2--2-2--2-------------0--0-0--0-----|
A|--------------0--2--0--0-0--0-0--0---------------------------|
E|---0-------3------------------------0--1--2------------------|

E|---------2--2-2--2-2--2-----0--------0---------0-------0-----|
B|---------0--0-0--0-0--0----------3-------3---------3-------3-|
G|---------2--2-2--2-2--2-0h1----------------0h1---------------|
D|-------1-1--1-1--1-1--1--------------------------------------|
A|-0-1-2---2--2-2--2-2--2--------------------------------------|
E|------------------------------0----0---0---------0---0---0---|

Then into:
A D  A
D    A
E D  A  E7

Вверх

Free As A Bird

Intro:
A  F#m  Dm  E  A  F#m  Dm  G  C  Am  Esus4 E

A F#m Dm E     A   F#m
Free     as a bird
Dm       E          A        F#m
Its the next best thing to be
Dm   G    C    Am   Esus4  E
Free as a bird
A F#m  Dm  E        A   F#m
aaaaaayyy, home and dry
Dm     E      A      F#m
Like a hummingbird I fly
Dm   G    C    Am   Esus4  E
On the bird of wings

Fmaj7                 F#m7b5(Am/F#)
What ever happened to the life that we once knew
G                     A         A/G
Can we really live without each other
Fmaj7                         F#m7b5
Where did we loose the touch, that seemed to mean so much
G                 E
It always made me feel so...
A F#m Dm E     A   F#m
Free     as a bird
Dm       E          A        F#m
Its the next best thing to be
Dm   G    C    Am   Esus4  E
Free as a bird

A F#m  Dm  E        A   F#m
aaaaaayyy, home and dry
Dm     E      A      F#m
Like a hummingbird I fly
Dm   G    C    Am   Esus4  E
On the bird of wings

Fmaj7                 F#m7b5(Am/F#)
What ever happened to the life that we once knew
G               E
Always made me feel so free

C   Am   G#   G   (3 times)

A F#m Dm E     A   F#m
Free     as a bird
Dm       E          A        F#m
Its the next best thing to be
Dm   G    A    F#m
Free as a bird
Dm   G    A    F#m
Free as a bird
Dm   G    A    F#m
Free as a bird

Вверх

From Me To You
mp3

{define: D7+ 0 2 1 3 0 0 -1}

G  Em  G  D7
If theres anything that you want; if theres anything I can do,
C7  Em  C  D7  G
just call on me and Ill send it along with love from me to you.

G  Em  G
If theres anything that you want, like a heart thats, oh,
D7
so true,
C7  Em
just call on me and Ill send it along with
C  D7  G
love from me to you.

Dm7  G7  C
I got arms that long to hold you and keep you by my side.
Em7  A7  D7  D7+
I got lips that long to kiss you and keep you satisfied.

G  Em
If theres anything that you want;
G  D7
if theres anything I can do,
C7  Em
just call on me and Ill send it along with
C  D7  G
love from me to you.

Вверх

Get Back
mp3

Intro:
[the intro shows the flavor of the rhythm guitar
playing throughout the song]

A
E|-------------------------------------------------|
B|-------------------------------------------------|
G|--X--2--X--2--X--2--X--2--X--2--X--2--X--2--X--2-|
D|--X--2--X--2--X--2--X--2--X--2--X--2--X--2--X--2-|
A|--X--0--X--2--X--2--X--2--X--2--X--2--X--2--X--2-|
E|-------------------------------------------------|

G/A D/A A
E|--------------5--5--3---2--0-------------|
B|--------------2--2--0---3--2-------------|
G|--X--2--X--2--X--2--X--2--2--2--0---2--2-|
D|--X--2--X--2--X--2--X--2--------2---0--2-|
A|--X--0--X--2--X--2--X--2--------0---0--0-|
E|-----------------------------------------|

Verse:
[the remainder of the tab is for the lead guitar]
A
E|---------------------------------------------|
B|---------------------------------------------|
G|---------------------------------------------|
D|---------------------------------------------|
A|--7----9-----7---9----7---------9-----7----9-|
E|--5----5-----5---5----5---------5-----5----5-|
Jojo was a man who thought he was a loner

D                       A
E|-------------------------------12----------------------|
B|------------------10--12b(14)------b(14)12--10------10-|
G|-------------/11--------------------------------11-----|
D|--7------9-------7---9---------------------------------|
A|--5------5-------5---5---------------------------------|
E|-------------------------------------------------------|
But he knew it couldnt last

A
E|-------------------------------------------|
B|-------------------------------------------|
G|-------------------------------------------|
D|-------------------------------------------|
A|--7----9--------7---9----7-----9----7----9-|
E|--5----5--------5---5----5-----5----5----5-|
Jojo left his home in Tucson Ari  zona

D                       A
E|------------------------------12----------------------|
B|-----------------10--12b(14)------b(14)12--10------10-|
G|------------/11--------------------------------11-----|
D|--7---------9---7---9---------------------------------|
A|--5---------5---5---5---------------------------------|
E|------------------------------------------------------|
For some Cali fornia grass Get back

A
E|-----9--9--9--9--9-------------9--9--9--9--9---|
B|-----8--8--8--8--8-------------8--8--8--8--8---|
G|-----9--9--9--9--9-------------9--9--9--9--9---|
D|--7-------------------------7------------------|
A|--------7--9----------------------7--9---------|
E|----/9------------------------/9---------------|
Get Back Get Back

D7             A           G/A    D/A   A
E|-----8--8--8--8--8---------------9--9--9--9--9-|
B|-----7--7--7--7--7---------------8--8--8--8--8-|
G|-----7--7--7--7--7---------------9--9--9--9--9-|
D|--7---------------------------7----------------|
A|--------7--9------------------------7--9-------|
E|----/9--------------------------/9-------------|
to where you once be long Get  back

A
E|-----9--9--9--9--9---------------9--9--9--9--9-|
B|-----8--8--8--8--8---------------8--8--8--8--8-|
G|-----9--9--9--9--9---------------9--9--9--9--9-|
D|--7---------------------------7----------------|
A|--------7--9------------------------7--9-------|
E|----/9--------------------------/9-------------|
Get Back Get Back

D7                         A
E|-----8--8--8--8--8---------------9--9--9--9--9-|
B|-----7--7--7--7--7---------------8--8--8--8--8-|
G|-----7--7--7--7--7---------------9--9--9--9--9-|
D|--7---------------------------7----------------|
A|--------7--9------------------------7--9-------|
E|----/9--------------------------/9-------------|
to where you once   be long


Guitar Lead:
A
E|--------------------12------------------------------|
B|-------10--10--10--12--12b(14)------b(14)12--10-----|
G|--/11--------------------------------------------11-|
D|----------------------------------------------------|
A|----------------------------------------------------|
E|----------------------------------------------------|

D           A          G   D
E|-------------------------------|
B|-------------------------------|
G|-7-----------------------------|
D|-------7--9-----10--7--10b(11)-|
A|----9--------------------------|
E|-------------------------------|

A
E|--------------------12--------------------------------|
B|-------10--10--10--12--12b(14)----b(14)12--10------10-|
G|--/11------------------------------------------11-----|
D|------------------------------------------------------|
A|------------------------------------------------------|
E|------------------------------------------------------|

D                   A               G            D
E|------------------------------------------------------|
B|----------------8--5----------------------------------|
G|--7----------------------5--7b(9)--5-----5------------|
D|-------7--10-----10--7--10--------7---------------7---|
A|----9-------------------------------------------------|
E|------------------------------------------------------|

The rest of the song builds off these ideas.  Once you can play
the above, youll be able to feel the small changes from verse
to verse, lead to lead.

Вверх

Getting Better

Fmaj7 (V)
C                            F/G
Its getting better all the time
G           C/G        G              C/G
I used to get mad at my school (No, I cant complain)
G             C/G              G           C/G
The teachers that taught me werent cool  (No, I cant complain)
G        C/G    G         C/G
Youre holding me down, turning me around
G          C/G            G  C/G  G
Filling me up with your rules

CHORUS:
C                           F
Ive got to admit its getting better
Em              F
A little better all the time
C                          F
I have to admit its getting better
Em              F       Fmaj7   G
Its getting better since youve been mine

C    G         C/G         G  C/G
Me used to be angry young man
G        C/G         G   C/G
Me hiding me head in the sand
G           C/G      G      C/G
You gave me the word I finally heard
G         C/G        G
Im doing the best that I can ...CHORUS

BRIDGE:
F C/E  F  C/E   F  C/E F  C/E  C
Getting so much better all the time
C                           F     Em              Fmaj7
Its getting better all the time, better, better, better
C                           F      Em             Fmaj7   G
Its getting better all the time, better, better, better

G
I used to be cruel to my woman                          G F C G
I beat her and kept her apart from the things that she loved
Man I was mean but Im changing my scene
And Im doing the best that I can

CHORUS #2:
I admit its getting better
A little better all the time (cant get no worse)
Yes, I admit its getting better
Its getting better since youve been mine ...BRIDGE
F C/E   F  C/E  F C/E F   F/G  C
Getting so much better all the time

Fmaj7 (V): x 8 7 5 5 5   C/E: x 0 2 0 1 3

Вверх

Girl

 Em      H                Em     E7
Is there anybody going' to listen to my story
Am                             G     H
All about the girl who came to stay?
Em               H               Em        E7
She's a kind of girl you want so much it makes you sorry;
Am                  C            G
Still, you don't regret a single day.
C D  G     C D
Ah, girl,     girl!

When I think of all the times I've tried so hard to leave her,
She will turn to me and start to cry.
And the promises the earth to me and I believe her,
After all this time I don't know why.
Ah, girl, girl!

Was she told when she was young that fame would lead to pleasure
Did she understand it when they said
That a man must break his back to earn his day of leisure?
Will she still believe it when he's dead?
Ah, girl, girl!

Вверх

Girl (2 вариант)

        Am      E               C     Am
Is there anybody goin to listen to my story
Dm       G7                C    E
all about a girl who came to stay?
Am                E             C          Am
Shes the kind of girl you want so much it makes you sorry;
Dm]               G7            C   E
still, you dont regret a single day.

C Am Dm G7 C Am Dm G7
Ah, girl!      girl!

When I think of all the times Ive tried so hard to leave her
She will turn to me and start to cry;
And she promises the earth to me and I believe her.
After all this time I dont know why.
Ah, girl! Girl!

Dm           A7
Shes the kind of girl who puts you down
Dm
when friends are there, you feel a fool.
A7
Dee dee dee Deedeedeedee deedeedeedee.
Dm
When you say shes looking good
A7
she acts as if its unterstood.
Dm          F
Shes cool, cool, cool, cool.

C Am Dm G7 C Am Dm G7
Ah, girl!      girl!

Was she told when she was young that
fame would lead to pleasure?
Did she understand it when they said
that a man must break his back to earn his day of leisure?
Will she still believe when hes dead?
Ah, girl! Girl!

Вверх

Girl (3 вариант)

 Примечание: G7 в этой песне лучше играть так: (xx0001)
Am       E7   Am              A7
Is there anybody going to listen to my story
Dm             G7                  C  E7
All about the girl who came to stay?
Am               E7               Am       A7
She?s the kind of girl you want so much, it makes you sorry,
Dm            G7              C    E7
Still you don?t regret a single day.
C  Am   F  G     C    Am    F  G
Ah, girl,        girl, girl.

Am              E7                  Am      A7
When I think of all the times I?ve tried so hard to leave her,
Dm                G7             C   E7
She will turn to me and start to cry.
Am         E7              Am     A7
And she promises the earth to me and I believe her
Dm         G7                    C     E7
After all this time I don?t know why.

C   Am  F G      C     Am   F G
Ah, girl,        girl, girl.

Dm                                 A7
She?s the kind of girl who puts you down
Dm
When friends are there, you feel a fool.
A7
When you say she?s looking good
Dm                     A7
he acts as if it?s understood, she?s cool, ooh, ooh, ooh.

C   Am   F G    C     Am    F G
Ah, girl,        girl, girl.

Am                E7                    Am
Was she told when she was young that pain would lead to
A7
pleasure?
Dm           G7                   C  E7
Did she understand it when they said
Am                 E7               Am    A7
That a man must break his back to earn his day of leisure?
Dm             G7                     C   E7
Will she still believe it when he?s dead?

C   Am  F G     C     Am   F G
Ah, girl,        girl, girl.
C   Am  F G     C     Am   F G
Ah, girl,        girl, girl.

Вверх

Give Peace A Chance

C
Everbodys talking about Bagism, Shagism,
Dragism, Madism, Ragism, Tagism
This-ism, That-ism, Isnt it the most?

C G C
All we are saying is give peace a chance
C G C
All we are saying is give peace a chance
C G C
All we are saying is give peace a chance

C
Everbodys talkin about Ministers, Sinisters,
Banisters, Canisters, Bishops
and Fishops, Rabbits and popeyes, Bye-bye Bye-byes

C G C
All we are saying is give peace a chance
C G C
All we are saying is give peace a chance

C
Let me tell you now, Everybodys talking
about Revolution, Evolution,
Mastication, Flagellation,
Regulations, Integregations,
Meditation, Unitied Nations, Congratulations

C G C
All we are saying is give peace a chance
C G C
All we are saying is give peace a chance

C
Ok lets stick to it, Everybodys talkink
about John and Yoko, Timmy Leary
Rosemary, Tommy Smothers, Bobby Dylan,
Tommy Cooper, Derek Taylor
Norman Mailer, Alan Ginsberg,
Hare Krishna,Hare Hare Krishna

C G C
All we are saying is give peace a chance
C G C
All we are saying is give peace a chance
C G C
All we are saying is give peace a chance
C G C
All we are saying is give peace a chance

Вверх

Glass Onion

Am F7
I told you bout Strawberry fields,
Am F7
you know the place where nothing is real
Am Gm7
Well heres another place you can go - wo
C7 Gm7
Where everything flow - ows
C7 F7 D7
Looking through the bent backed tulips To
F7 D7 F7 G7
see how the other half lives Looking through a glass onion

I told you bout the Walrus and me man
You know that were as close as can be man
Well heres another clue for you all
The Walrus was Paul
Standing on a cast iron whore yeah
Lady Madonna tryin to make ends meet yeah
Looking through a glass onion

BRIDGE
Am F Am Am7
oh yeah oh yeah oh yeah
F7 G7
Looking through a glass onion

I told you bout the Fool on the Hill
I tell you that hes living there still
Well heres another place you can be
Listen to me
Fixing a hole in the ocean Try- G Adim7
ing to make a dove tail joint Looking through a glass onion

Вверх

Golden Slumbers

 INTRO (one measure)
(quietly)
------------------------
------------------------
0-----0-----0-----0-----
------------------------
3--0--3--0--3--0--3--0--
------------------------
1  &  2  &  3  &  4  &

-VERSE-
(quietly the 1st time, louder the 2nd time)
Am7				           Dm7
Once, there was a way_________ to get back homeward
G7					   C
Once, there was a way_________ to get back home
Em		Am           Dm9
Sleep pretty darling, do not cry,
G7		   	C
And I will sing a lullaby
-CHORUS-
(loudly)
C	   F		      C
Gold  - en slumbers fill your eyes
C	F		  C
Smiles awake you when you rise
Em		Am	      Dm9
Sleep pretty darling, do not cry,
G7		       C
And I will sing a lullaby

(Repeat VERSE)

HOW TO FINGER THE CHORDS:
Am7	  Dm7	  G7	   C	  Em	  Am	  Dm9	   F
o o o	  o	  ooo	   o o	o  ooo	 o   o	  o  o
||||*|	||||**	|||||*	||||*|	||||||	||||*|	||||*|	||||**
||*|||	|||*||	|*||||	||*|||	|**|||	||**||	|||*||	|||*||
||||||	||||||	*|||||	|*||||	||||||	||||||	||||||	|**|||

Вверх

Good Day Sunshine

 G  D  G  D  C7
Good day sunshine, good day sunshine, good day sunshine.
F  Dm7  G7  C7
I need to laugh and when the sun is out, Ive got
F
Someting I can laugh about.
C7  F  Dm7  G7  C7
I feel good in a special way, Im in love, and its
F
A sunny day.
G  D  G  D  C7
Good day sunshine, good day sunshine, good day sunshine.

We take a walk, the sun is shining down,
Burns my feet as they touch the ground.
Good day sunshine, good day sunshine, good day sunshine.

And then we lie beneath a shady tree,
I love her and shes loving me.
She feels good, she knows shes looking fine.
Im so proud to know that shes mine.

G  D  G  D  G  D7
Good day sunshine, good day sunshine, good day sunshine.
G  D7  G  D7
Good day sunshine, good day sunshine.

Вверх

Goodnight

 G  Bm  C
Now its time to say goodnight,
Bm  C  D7
Good night, sleep tight.
G  Bm  C
Now the sun turns  out his light,
Bm  C  D7
Good night, sleep  tight

{Chorus:}
Bm  Am  Bm  Am
Dream sweet dreams for me,
G  Am  G  Am
Dream sweet dreams for you.

Close your eyes and Ill close mine, Goodnight, sleep tight
Now the moon begins to shine, Goodnight, sleep tight

{Chorus.}

{Middle:}
G  Am  A  Dm  G  C  D7
Hm, m m, Hm, m m, Hm, m, m-m-m m.

Close your eyes and Ill close mine, Goodnight, sleep tight
Now the sun turns out his light, Goodnight, sleep tight

{Chorus.}

Вверх

Happiness Is A Warm Gun

      Am9       Am6    Em         Am                  Em
Shes not a girl   who misses much Du du du du du du Oh yeah
Dm
Shes well acquainted with the touch of the velvet hand
Am
like a lizard on a window pane The
Dm
man in the crowd with the multicolored
Am
mirrors on his hobnail boots
Dm                                                   Am
Lying with his eyes while his hands are busy working overtime
Dm
A soap impression of his wife which
Am
he ate and donated to the national trust

A7 C Am

A7
I need a fix cause Im goin down,
down to the bits that I left up town
C
I need a fix cause Im goin down.

A7              C             A7              G7
Mother Superior jump the gun, Mother Superior jump the gun. (3X)
half tempo, still 3/4 time, lyrics in
are spoken, with "oo" etc in back

C      Am        F        G7  C     Am        F           G7
Happiness is a warm gun      Happiness is a warm gun, mama
Cmaj7   Am7      F       G7     C      Am7
(When I hold you   in my arms    And I feel
F              G7      C
my finger on your trigger     I
Am7    F              G7
know nobody can do me no harm, because)

Вверх

Hello Goodbye

 C  G  D7  Em  D7  Em
You say yes, I say no, you say stop, I say go, go, go.
D7  G  D7  C  G
Oh no. You say goodbye and I say hello, hello, hello.
C  Eb  G
I dont know why you say goodbye, I say hello, hello, hello.
C  F  G
I dont know why you say goodbye, I say hello.

I say high, you say low, you say why, and I say I dont know.
Oh no. You say goodbye and I say hello, hello, hello.
I dont know why you say goodbye, I say hello, hello, hello.
I dont know why you say goodbye, I say hello.

Why, why, why, why, why, why,
do you say goodbye, goodbye, bye, bye.
Oh no. You say goodbye and I say hello, hello, hello.
I dont know why you say goodbye, I say hello, hello, hello.
I dont know why you say goodbye, I say hello.

You say yes, I say no, (I say yes but I mean no)
you say stop, I say go, go, go.
(I can stay still its time to go)
Oh, oh no. You say goodbye and I say hello, hello, hello.
I dont know why you say goodbye, I say hello, hello, hello.
I dont know why you say goodbye, I say hello, hello, hello.
I dont know why you say goodbye, I say hello, hello, hello.
I say hello, hello, hello.
Hello, hello, hello.
Hela, heba, helloa.

Вверх

Help!
mp3

 Hm              Hm/A   G
Help! I need somebody, help! Not just anybody,
E7                             A
Help! You know I need someone, help!

A                            C#m               F#m
When I was younger, so much younger than today,
D      G    A
I never needed anybody,s help in any way.
A                                C#m
But now these days are gone, I,m not so self-assured,
F#m                                   D      G       A
Now I find I,ve changed my mind, I,ve opened up the doors.
Hm
Help me if you can, I,m feeling down,
Hm/A   G
And I do appreciate you being ,round,
E7
Help me get my feet back on the ground.
A
Won,t you please please help me?

A                               C#m             F#m
And now my life has changed in, oh, so many ways,
D      G      A
My independence seems to vanish in the haze.
A                        C#m
But ev,ry now and then I feel so insecure,
F#m                                    D     G      A
I know that I just need you like I,ve never done before.
Hm
Help me if you can, I,m feeling down,
Hm/A   G
And I do appreciate you being ,round,
E7
Help me get my feet back on the ground.
A
Won,t you please please help me?

A                            C#m               F#m
When I was younger, so much younger than today,
D      G    A
I never needed anybody,s help in any way.
A                                C#m
But now these days are gone, I,m not so self-assured,
F#m                                   D      G       A
Now I find I,ve changed my mind, I,ve opened up the doors.
Hm
Help me if you can, I,m feeling down,
Hm/A   G
And I do appreciate you being ,round,
E7
Help me get my feet back on the ground.
A                F#m
Won,t you please please help me?
A  A6
Help me help me! Oo.

Вверх

Help! (2 вариант)
mp3

Em C A7 G
G                            Bm              Em
When I was younger, so much younger than today,
C      F    G
I never needed anybodys help in any way.
Bm                Em
But now those days are gone Im not so self-assured,
C      F       G
Now I find Ive changed my mind, Ive opened up the door.
Am
Help me if you can Im feeling down,
F
and I do appreciate you being round.
D7
Help me get my feet back on the ground,
G
wont you please please help me.
Bm            Em
And now my life has changed in oh so many ways,
C     F       G
My independence seemed to vanish in the haze.
Bm             Em
But every now and then I feel so insecure,
C      F      G
I know that I just need you like Ive never done before.
Am
Help me if you can Im feeling down,
F
and I do appreciate you being round.
D7
Help me get my feet back on the ground, wont you
G
please please help me.
G                            Bm               Em
When I was younger, so much younger than today,
C      F    G
I never needed anybodys help in any way.
Bm                 Em
But now those days are gone Im not so self-assured,
C      F       G
Now I find Ive changed my mind, Ive opened up the door.
Am
Help me if you can Im feeling down,
F
and I do appreciate you being round.
D7
Help me get my feet back on the ground,
G                Em
wont you please please help me.
G   Em
Help me, help me,  oo.

Вверх

Help! (3 вариант)
mp3

intro:
G|-----------------------------------------------------|
D|--9-9-9-9-9-9-9-7-5-5-5-5-5-5-5-4-2-2-2-2-2-2-2-2-7--|
A|--------------------------------------------------0--|
E|-----------------------------------------------------|

first verse:
G|-------------------------------------------------------------|
D|-7-7---7-7--------6-----6-----4-4---4-4----------5-7-7-7---5-|
A|-----7-----7--4-4---4-4-----------4-----4----5-5---------7---|
E|-------------------------------------------------------------|

G--------------------------------------------------------------|
D-7-7---7-7---------6-----6----4-4---4-4-----------5-7-7-7-7-7-|
A-----7-----7---4-4---4-4----------4-----4-----5-5-------------|
E--------------------------------------------------------------|

chorus

G|-------------------------------------------------------------|
D|-------------------------------------------------------------|
A|-2-2-----2-2-----2-2-----2-2-------5-5-----5-5----5-5--------|
E|-----2-2-----2-2-----2-2-----5-3-3-----3-3-----3-3---3-3-2-2-|

G-----------------------------------|
D-----------------------------------|
A---------2-2---2---------2-2---2-7-|
E-0-0-4-4-----4---0-0-4-4-----4-----|

second verse

G|-------------------------------------------------------------|
D|--7-7----7-7----------6-----6---4-4---4-4--------5-7-7---5---|
A|------7------7----4-4---4-4---------4-----4--5-5-------7-----|
E|-------------------------------------------------------------|

G|-------------------------------------------------------------|
D|-7-7----7-7---------------------4-4---4-4--------5-5-7-7-7-7-|
A|-----7------7----4-4----4-4---------4-----4--5-5-------------|
E|---------------------4------4--------------------------------|

chorus

third verse

G|-------------------------------------------------------------|
D|-7---------------------4-----------5--------------7------7-7-|
A|----------4--------------------------3-5------5-5----5-5-----|
E|-------------------------------------------------------------|

G|-----------------------------------------------|
D|-----6--------6----4-4---4-4-----------5-7-7-7-|
A|-4-4------4-4----------4-----4-----5-5---------|
E|-----------------------------------------------|

chorus

outro

G|----------------------------------|
D|-4-4---------4-4-------4--------7-|
A|-------4-4----------4-----------0-|
E|----------------------------------|

Вверх

Helter Skelter

Em C A7 G

G                            Bm               Em
When I was younger, so much younger than today,
C      F    G
I never needed anybodys help in any way.
Bm                 Em
But now those days are gone Im not so self-assured,
C      F       G
Now I find Ive changed my mind, Ive opened up the door.
Am
Help me if you can Im feeling down,
F
and I do appreciate you being round.
D7
Help me get my feet back on the ground,
G
wont you please please help me.
Bm              Em
And now my life has changed in oh so many ways,
C     F       G
My independence seemed to vanish in the haze.
Bm                 Em
But every now and then I feel so insecure,
C      F      G
I know that I just need you like Ive never done before.
Am
Help me if you can Im feeling down,
F
and I do appreciate you being round.
D7
Help me get my feet back on the ground,
G
wont you please please help me.
G                            Bm                Em
When I was younger, so much younger than today,
C      F    G
I never needed anybodys help in any way.
Bm                 Em
But now those days are gone Im not so self-assured,
C      F       G
Now I find Ive changed my mind, Ive opened up the door.
Am
Help me if you can Im feeling down,
F
and I do appreciate you being round.
D7
Help me get my feet back on the ground,
G                Em
wont you please please help me.
G   Em
Help me, help me,  oo.

Вверх

Here Comes The Sun

INTRO

D  Dsus2 D                Dsus2        G          G6  G
E|-2-----0--2-------|------2--0-------------|--------0-------0-|
B|-3--3-----------3-|----------------3----0-|--------0---3---0-|
G|-2--------------2-|----------------2----0-|---3----0---0---0-|
D|-0-----------0----|-0--0--------0-------0-|---0----0---0---0-|
A|------------------|---------------------2-|------2-2-2-2-2---|
E|------------------|------------------0--3-|-3------3---3-----|

A7 A7sus2 A7 A7sus4     A     D      Dsus2 D
E|------------------0--------|------2-----0--2------|
B|-2--0----2--3-----------2--|------3--3---------3--|
G|-0-------0-----0--------2--|------2---------------|
D|-2-------2-----2-----2--2--|--0---0---------------|
A|-0-------0-----0-----------|----------------------|
E|---------------------------|----------------------|

Dsus2      G    Gmaj7    G6  G/B       A7
E|-------2--0--------------|-----2-----0--------------|
B|----------------3-----0--|-----0------------3-----2-|
G|----------------------0--|-----0------------0-----0-| (rest)
D|-0--0--------0--------0--|-----0------------0-----2-|
A|----------------------2--|-----3---------2--2--0--0-|
E|-------------------0--3--|--3--3--3-----------------|

CHORUS

D     Dsus2 D            Dsus2   D   G    Gmaj7 G6  Gmaj7 E7
Here comes the sun  doo doo doo doo       Here comes the sun
E|--2--0-----2-----|----2------0--2------|----2--0-----2-------|
B|---------------3-|-------3----------0--|-----------------3---|
G|-----------------|---------------------|---------------------|
D|-----------------|---------------------|---------------------|
A|-----------------|---------------------|---------------------|
E|-----------------|---------------------|---------------------|

D      Dsus2  D
and I___ say_     "Its  al-  right."
E|--------------------|----2-----0---------------|
B|--3--3----3-----3---|----------------3---------|
G|--------------------|----------------------2---|
D|--------------------|--0----0-----0-----0------|
A|--------------------|--------------------------|
E|--------------------|--------------------------|

E|-------0--------0--------|--0--------0-------------||
B|----3--------3--------3--|--------3-----32---------||
G|-4--------2--------0-----|-----2-------------42----||
D|-------------------------|-------------------------||
A|-------------------------|-------------------------||
E|-------------------------|-------------------------||

VERSE 1 and 2

D      Dsus2 D         D      Dsus2    G           G6    G
1. Little darling, its been   a   long  cold  lone--ly  wint-
2. Little darling, the smiles re - turning     to  their face-
E|--2------0--2-----|-------2--0----------|-------0------------|
B|-----3----------3-|-(3)----------3----0-|----3-------3---0---|
G|------------------|---------------------|--------------------|
D|------------------|---------------------|--------------------|
A|------------------|---------------------|--------------------|
E|------------------|---------------------|--------------------|

A7  A7sus2 A7 A7sus4 A7 D Dsus2   D              Dsus2       G
--- ter;
--- ces; /              Lit-tle darling, it seems  like years
E|-----------------0-----|---2--2--0--2------|-----2-0---------|
B|-2---0----2--3-------2-|----------------3--|-(3)------3----0-|
G|-----------------------|-------------------|-----------------|
D|-----------------------|-------------------|-----------------|
A|-----------------------|-------------------|-----------------|
E|-----------------------|-------------------|-----------------|

G6    G     A7            A7sus4
since its  been  clear
E|-2--------0-------------|-----------------------||
B|---------------3-----2--|---2--2---3--3--3--3---||
G|------------------------|-----------------------||
D|------------------------|-----------------------||
A|------------------------|-----------------------||
E|------------------------|-----------------------||

REPEAT CHORUS

D     Dsus2 D              Dsus2   D   G    Gmaj7 G6  Gmaj7 E7
Here comes the sun    doo doo doo doo       Here comes the sun
E|--2--0-----2-------|----2------0--2------|----2--0-----2-----|
B|---------------3---|-------3----------0--|-----------------3-|
G|-------------------|---------------------|-------------------|
D|-------------------|---------------------|-------------------|
A|-------------------|---------------------|-------------------|
E|-------------------|---------------------|-------------------|

D      Dsus2
and I___ say_     "Its  al-  right."
E|--------------------|----2-----0---------------|
B|--3--3----3-----3---|-----------------3--------|
G|--------------------|-----------------------2//|
D|--------------------|--------------------------|
A|--------------------|--------------------------|
E|--------------------|--------------------------|

E|-------0--------0--------|--0--------0-------------||
B|----3--------3--------3--|--------3-----32---------||
G|/4--------2--------0-----|-----2-------------42----||
D|-------------------------|-------------------------||
A|-------------------------|-------------------------||
E|-------------------------|-------------------------||

SOLO

D     Dsus2 A7sus2 A7 A7sus2 A7              A       F
E|--2----0--2-----|---------------0----|-----|-----------------|
B|-----3-------0--|--2--0---2--3-----2-|-2-2-|---------------1-|
G|----------------|--------------------|-----|------------2----|
D|----------------|--------------------|-----|-------2-3-------|
A|----------------|--------------------|-----|--0-4------------|
E|----------------|--------------------|-----|-----------------|

C         G                D              A7       A
E|---------|---------------|-------------|--------|-----------||
B|---------|---------------|-------------|--2--2--|-----------||
G|-------0-|-------0-------|----(rest)---|--------|-----------||
D|----2----|----0----------|-0-----------|--------|--------2--||
A|-3-------|-2-----------2-|-------------|--------|--0--4-----||
E|---------|----------3----|-------------|--------|-----------||

BRIDGE (?)
repeat twice

F           C           G                  D
Sun,        sun,        sun,    here it    comes.
E|-----------|-----------|------------------|-----|
B|--------1--|-----------|------------------|-----|
G|-----2-----|--------0--|--------0---------|-----|
D|--3--------|-----2-----|-----0------------|--0--|
A|-----------|--3--------|--2------------2--|-----|
E|-----------|-----------|------------3-----|-----|

then do this:

A7      A7sus2 A7 A7sus4     A7 A7sus4 A7       A7sus4 A7 A
E|---------------------|------------------0-|-0--0--0-----0--5-|
B|-2--2--2--2--0--2--3-|--3--3--3--2--3-----|----------3-------|
G|---------------------|--------------------|------------------|
D|---------------------|--------------------|------------------|
A|---------------------|--------------------|------------------|
E|---------------------|--------------------|------------------|

E|--5--5--5--5----5--|
B|-------------------|
G|-------------------|
D|-------------------|
A|-------------------|
E|-------------------|

VERSE 3

D      Dsus2 D              Dsus2    G           G6    G
3. Little darling,   I   feel   that ice     is slow -ly  melt-
E|-2------0--2-----|-----2--0-----------|---------0------------|
B|----3----------3-|------------3----0--|--(0)-3-------3---0---|
G|-----------------|--2-----------------|----------------------|
D|-----------------|--------------------|----------------------|
A|-----------------|--------------------|----------------------|
E|-----------------|--------------------|----------------------|

A7 A7sus2 A7 A7sus4 A7 D Dsus2 D Dsus2 G
--- ing;              Lit-tle darling, it seems  like years
E|----------------0------|-2-----0--2-----|------2--0----------|
B|-2--0----2--3-------3--|----3---------3-|-------------3----2-|
G|-----------------------|----------------|--2-----------------|
D|-----------------------|----------------|--------------------|
A|-----------------------|----------------|--------------------|
E|-----------------------|----------------|--------------------|

Gmaj7  G6    G     A7            A7sus4
since its  been  clear
E|-2--------0-------------|-----------------------||
B|---------------3-----2--|-0-2--2---3--3--3--3---||
G|------------------------|-----------------------||
D|------------------------|-----------------------||
A|------------------------|-----------------------||
E|------------------------|-----------------------||

REPEAT CHORUS

D     Dsus2 D              Dsus2   D   G    Gmaj7 G6  Gmaj7 E7
Here comes the sun    doo doo doo doo       Here comes the sun
E|--2--0-----2-------|----2------0--2------|----2--0-----2-----|
B|---------------3---|-------3----------0--|-----------------3-|
G|-------------------|-2-------------------|-------------------|
D|-------------------|---------------------|-------------------|
A|-------------------|---------------------|-------------------|
E|-------------------|---------------------|-------------------|

D      Dsus2
and I___ say_     "Its  al-  right."
E|--------------------|----2-----0---------------|
B|--3--3----3-----3---|-----------------3--------|
G|--------------------|-----------------------2//|
D|--------------------|--------------------------|
A|--------------------|--------------------------|
E|--------------------|--------------------------|

E|-------0--------0--------|--0--------0-----------||
B|----3--------3--------3--|--------3-----32-------||
G|/4--------2--------0-----|-----2-------------42--||
D|-------------------------|-----------------------||
A|-------------------------|-----------------------||
E|-------------------------|-----------------------||

REPEAT CHORUS AD-LIB

OUTRO                                  F6       C        G
slowly
E|------0-------0-------0---------|----------------------------|
B|---3--------3------3-----32-----|--------1-------------------|
G|-4-------2------0------------42-|-----2-----------0--------0-|
D|--------------------------------|--0-----------2--------0----|
A|--------------------------------|-----------3--------2-------|
E|--------------------------------|----------------------------|

D/A
E|-------2-|
B|-------3-|
G|-------2-|
D|-------0-|
A|----2--0-|
E|-3-------|

Вверх

Here There And Everywhere

G           Bm
To lead a better life,
Bb                     Am11  D7
I need my love to be here.

G     Am7  Bm            C        G     Am7
Here,      making each day of the year
Bm          C           F#m7        B7
Changing my life with a wave of her hand,
F#m7   B7    Em              Am        Am7    D7
Nobody can deny that theres something there.

There, running my hands through her hair
Both of us thinking how good it can be
Someone is speaking, but she doesnt know hes there.

Chorus:  (x2)

F7       Bb("E" bar chord)  Gm
I want her everywhere
Cm              D7            Gm
And if shes beside me I know I need never care.
Cm              D7             G          Am7
But to love her is to need her everywhere
Bm              C       G      Am7
Knowing that love is to share,
Bm           C          F#m7       B7
Each one believing that love never dies
F#m7         B7        Em         Am   Am7 D7 (1st time through)
Watching her eyes, and hoping Im always there.
D7sus4 (2nd time thru)

G     Am      Bm       C
I will be there,    and everywhere.
G     Am7        Bm       C   G
Here, there, and everywhere.

Neil...

Вверх

Her Majesty

Her Majestys a pretty nice girl but she hasnt got a lot to say
D       D/C#       D/B      D        E7        A7    D
E|-2---2-2----2--2---2----2-2-----2--2-------------------------|
B|-3---3-2----3--3---3----3-3-----3--3-----3--3-----2--3-------|
G|-2---2-2----2--2---2----2-3-----2--2-----1--1-----0--2-------|
D|-0-0-------------------------------------2--2-----2--0-------|
A|-0--------4----------2-------0-----------------0-------0-2-4-|
E|-2------------------------------------0----------------------|

Her Majestys a pretty nice girl but she changes from day to day
D/C#       D/B       D         E7             A
E|---2-2----2--2---2-----2-2-----2---2-------------------------|
B|---3-2----3--3---3-----3-3-----3---3------3-----3----2-2-3-2-|
G|---2-2----2--2---2-----2-3-----2---2------1-----1----2-2-2-2-|
D|-0----------------------------------------2-----2----2-2-4-2-|
A|--------4----------2--------0----------------------0---------|
E|--------------------------------------0------0---------------|

I wanna tell her I love her alot but I gotta get a belly fulla
wine
Bm                 Bm9             D7               G
E|-------------------------------------------------------------|
B|----3--3--------3-------2----2--2--------1-------1-----0---0-|
G|----4--4--------4-------4----4--4--------2-------2-----0---0-|
D|----4--4--------4-------4----4--4---0--------0---------0---0-|
A|-2---------2--------2-----2----------------------------------|
E|-----------------------------------------------------3---3---|

Her Majestys a pretty nice girl some day Im gonna make her
(S) Ddim               D         B7        E7          A
E|-----7--7-----7----7--------2--------------------------------|
B|-----6--6-----6----6--------3---------0----------3---------2-|
G|---7-7--7--7--7----7--------2---------2----------1---------2-|
D|-----6--6-----6----6---0--------------1----------2---------2-|
A|---------------------------------2---------------------0-----|
E|-------------------------------------------0-----------------|

Mine oh yeah some day Im gonna make her mine.
D         B7       E7             A7       D
E|-------2-----------------------------------------------------|
B|-------3------0---------------3---------2--------------------|
G|-------2------2---------------1---------2--------------------|
D|--0-----------1---------------2---------2----0---------------|
A|------------2-----------------------0------------0-----------|
E|---------------------0---------------------------------------|

Вверх

Her Majesty (2 вариант)

her majestys a pretty nice girl
but she doesnt have a lot to say
her majestys a pretty nice girl
but she changes from day to day
I wanna tell her that I love her
a lot but I got to get a belly full of wine
her majestys a pretty nice girl
someday Im gonna make her mine ooh yeah
someday Im gonna make her mine

possible version one:  the basic bass line
(I know this song has no bass, but this is what itd be)

parts above the brackets are played faster to fit in two beats

D|0-------------------------------------------------------5-5-5|
A|5-5-4-2-0---0-5-0-2-4-5-4-2-0---0-0-0-2---2----5-5---2-------|
E|----------0-------------------0---------2---2------3---------|

D|----------------------|
A|--5-2--0-5-2---0-5----|
E|------0------0-----5--|

possible version two:  octaves

G|7-7-6-4-2-2-7-2-4-6-7-6-4-2--2-2-2-4---4---7-7---4---12-12-12|
D|7--------2-----------------2---------4---4-----5-------------|
A|5-5-4-2-0-0-5-0-2-4-5-4-2-0--0-----2---2---5-5---2-10--------|
E|---------0-----------------0---------2---2-----3-------------|

G|--7-5---2-7-5---2-7---|
D|------2-------2-------|
A|--5-2---0-5-2---0-5---|
E|------0-------0-----5-|

possible version three:   upper fretboard tapping

I know jack shit about tapping...
Ive seen one friend do it and it blew my mind;this is NOT the
kind where you tap with the right hand high on the fretboard
and the left hand low on the fretboard doing a counter line.
Stu Hamm Im not, nor aspire to be. This is for fun. And it
helps if you keep your left index finger across the 12th fret
of both D and G strings to retain clarity and harmonics

L=left hand    R=right hand

R                                                    L
L   R  R  R  L  L  L R   L R  R   R   R  R  L L  R
G|-19-19-18-16-14----14-19-14-16-18--19-18-16-14----14-------|
D|-12-------------14-----------------------------14-19-19-19-|

R  R  R  R  R R  R  L  R        R  R L  L   R  R  L  L  R  R
G|16---16----19-19---16-24-24-24-19-16----14-19--16---14-19---|
D|--16----16------17-------------------14----------14-------19|

possible version four:  upper fretboard octave tapping
sounds like shit...  dont bother...

Вверх

Hey Bulldog

Intro part
E|-------------------------------------------------|
B|-------------------------------------------------|
G|-------------------------------------------------|
D|--------------2-----3--4--------------4-----3--2-|
A|--2--2--5--2-----2--------2--2--5--2-----2-------|
E|-------------------------------------------------|
repeat

there is no guitar during the verse, but this is a guitar
version of the piano chords:
B7  F#m  B7  F#m  A   F#m  E   E7  A   F#m  B7
E|--2---2----2---2---0----2----0---0---0---2----2--|
B|--4---2----4---2---2----2----0---3---2---2----4--|
G|--2---2----2---2---2----2----1---1---2---2----2--|
D|--4---4----4---4---2----4----2---2---2---4----4--|
A|--2---4----2---4---0----4----2---2---0---4----2--|
E|------2--------2--------2----0---0-------2-------|

"you can talk to..." (the patented James Bond chords)
Bm   Bm(#5)  Bm6  Bm7  Em  Em(#5)  Em6  Em7  Bm   Em
E|--------------------------0---0-------0----0----2----0--|
B|--------------------------0---1-------2----3----3----0--|
G|---7-----7------7-----7---0---0-------0----0----4----0--|
D|---9-----9------9-----7---2---2-------2----2----4----2--|
A|---9-----10-----11----9---2---2-------2----2----2----2--|
E|---7-----7------7-----7---0---0-------0----0---------0--|

solo
E|----------------------------------------------------|
B|-12--12--12--12--12--12--12--12------------------4--|
G|-------------------------------------------------4--|
D|--9---9---9---9---9---9---9---9---------------4-----|
A|----------------------------------9---2--/6---------|
E|----------------------------------------------------|

E|--------------------|
B|--2--2--2--2--4--5--|
G|--2--2--2--2--4--6--|
D|--------------------|
A|--------------------|
E|--------------------|
repeat

E|---------------------------------4------12--12--12--12--12-|
B|--5--5--3--2--2--2--3--2------3-----3----------------------|
G|--6--6--4--2--2--2--4--2--/4-------------------------------|
D|-----------------------------------------------------------|
A|-----------------------------------------------------------|
E|-----------------------------------------------------------|

E|--------------------------------------------------------|
B|--5--5--3--2--2--2--3--2--4--4--4--4--4--7--7--7--7--7--|
G|--6--6--4--2--2--2--4--2--4--4--4--4--4--8--8--8--8--8--|
D|--------------------------------------------------------|
A|--------------------------------------------------------|
E|--------------------------------------------------------|

fade out part
E|----------------------------------------------------|
B|----------------------------------------------------|
G|----------------------------------------------------|
D|--------------2----3--4-----------------------------|
A|--2--2--5--2----2--------------------4-----3--2-----|
E|-------------------------2--2--5--2-----2--------5--|
repeat

Вверх

Hey Jude

         F                C
Hey Jude dont make it bad
F  C7   C7sus4      C7       F
take a  sad   song  and make it better
Bb                           F
Remember to let her into your heart
C               F
and then you can start to make it better

F              C
Hey Jude dont be afraid
F   C7   C7sus4      C7      F
you were made    to  go   out and get her
Bb                            F
The minute you let her under your skin
C                F   Fmaj7 F7
then you begin to make it better

Bb      Bb/A   Gm
And anytime you feel the pain hey jude refrain
Gm7       C/E   C            F    Fmaj7 F7
dont carry the world upon your shoulders
Bb      Bb/A      Gm
For well you know that its a fool who plays it cool
Gm7       C/E       C      F
by making his world  a little colder

F6 F7      C  Csus4  CaddG       C  F  C7
Da da da da da   Da   da    da    da

F               C
Hey Jude dont let me down
F     C7  C7sus4    C7      F
You have found  her  now go and get her
Bb                         F
Remember to let her into you heart
C                F   Fmaj7  F7
then you can start to make it better

Bb     Bb/A   Gm
So let it out and let it in hey Jude begin
Gm7         C/E    C     F         Fmaj7  F7
your waiting for someone to perform with
Bb      Bb/A        Gm
And dont you know that its just you hey jude you?ll do
Gm7         C/E     C         F
The movement you need is on your shoulders

F6 F7      C  Csus4 CaddG    C  F  C7
Da da da da da   da  da   da    da

F                C
Hey Jude dont make it bad
F  C7   C7sus4      C7      F
take a  sad   song  and make it better
Bb                            F
Remember to let her under your skin
C                F
and then you?ll begin to make it better

F        Eb
Na na na na na na na
Bb
Na na na na
F
Hey Jude   (Repeat and fade)

Вверх

Hide Your Love Away

  D      A    C   G   D
Here I stand head in hand,
G                  C   G
Turn my face to the wall.
D        A      C     G   D
If shes gone I cant go on,
G               C   G   A
Feeling two feet small.

D     A    C  G   D
Everywhere people stare,
G             C   G
Each and every day.
D     A        C    G   D
I can see them laugh at me,
G              C   G    A
And I hear them say,

D                  G              A
Hey, youve got to hide your love away!
D                  G              A
Hey, youve got to hide your love away!

D    A   C  G  D
How can I even try?
G           C  G
I can never win.
D       A     C  G   D
Hearing them, seeing them,
G             C   G    A
In the state Im in,
D         A   C   G   D   G                C   G
How could she say to me, "Love will find a way"?
D      A    C    G    D
Gather round all you clowns,
G              C   G    A
Let me hear you say,

D                  G              A
Hey, youve got to hide your love away!
D                  G              A
Hey, youve got to hide your love away!

Вверх

I Am The Walrus

B  A  G  F  E  E7  D  D7

A          A/G (3x222x)  C              D      E         A  A/G
I am he as you are he as you are me and we are all together
C                                            D
See how they run like pigs from a gun see how they fly
A
Im crying

Expert texpert choking smokers dont you think the joker
laughs at you?
See how they smile like pigs in a sty, see how they snied
Im crying

A                    A/G    D/F# (2x023x) Famj7  G  A  A/G
Sitting on a cornflake waiting for the van to come
F
Corporation tee shirt stupid bloody Tuesday man
B
youve been a naughty boy you let your face grow long

Yellow matter custard dripping from a dead dogs eye
Crab a locker fishwife pornographic priestess boy
you been a naughty girl you let your knickers down

Semolina pilchards climbing up the Eiffel Tower
Elementry penguin singing Hare Krishna. Man
you should have seen them kicking Edgar Allan Poe

CHORUS
C                     D                 E
I am the egg-man, they are the egg-men, I am the Walrus
Goo goo g joob

A           A/G               C             D          E  A A/G
Mister city pliceman sitting pretty little plice men in a row
C                                            D
See how they fly like Lucy in the Sky see how they run
A                Dsus4      A            E     D   D7
Im crying     Im cry - ing  Im crying   Im cry - ing

BRIDGE

E  B  A  G  F  E

B             A          G           F          E
Sitting in an English garden waiting for the sun.
F
If the sun dont come
B7
you get a tan from standing in the English rain
C
I am the egg-man...

CHORUS

Вверх

I Call Your Name

              F#7			E7      B7 (hold)

|------------0--0-0--0------------------0--0-0--2-
|------------2--2-2--2------------------3--3-3--0-
|------------3--3-3--3---0---0----------1--1-1--2-
|----0-2--4--4--4-4--4-4---2---2-0---2--2--2-2--1-
|-2----------4--4-4--4-------------2----2--2-2--2-
|---------------------------------------0--0-0--x-

E7                   C#7
I call your name but youre not there
F#7                B7
Was I to blame for being unfair
E7                               C#7
Oh I cant sleep at night since youve been gone
F#7           A
I never weep at night, I cant go on

A
Dont you know I cant take it
C#m
I dont know who can
F#
Im not going to make it
C B7
Im not that kind of man.

Oh I cant sleep at night but just the same
I ever weep at night I call your name.

Вверх

I Dig A Pony

False start:
A-one-two-three HOLD IT!
E|-----|
B|-----|
G|-----|
D|-----|
A|-----|
E|--3--|

Intro (also use as ending):
G                 D
E|--------------------------------------|
B|--------------------------------------|
G|-----------------------------4--7--4--|
D|-----------2--5--2-----4--7-----------|
A|-----2--5-----------5-----------------|
E|--3-----------------------------------|

A
E|-----------------------------------------------|
B|-----------------------------------------------|
G|-----------------------------2-----------------|  (repeat)
D|--5--5--5---------2--h3--h4-----4--2---------2-|
A|--0--0--0--3--h4----------------------3--h4----|
E|-----------------------------------------------|

Verse:
I                          dig a pony
A      F#m
E|--5--5----5--5----5--5----5----------2-|
B|--2--2h3--2--2h3--2--2h3--2----------2-|
G|--2--2----2--2----2--2----2----------2-|
D|--2--2h4--2--2h4--2--2h4--2----------4-|
A|--0--0----0--0----0--0----0----------4-|
E|-------------------------------------2-|

Well you can celebrate any thing you want (*)   yes
Bm           G
E|------------------------------------------------3--5--5/7--5-|
B|-------------------------------------------------------------|
G|------------------------------------------------4--5--5/7--5-|
D|--2h4--2-----------------------------------------------------|
A|---------------4-------2-------------------------------------|
E|-------------------------------------------------------------|

You can celebrate any thing you want          oh
Bm            G           E7                  A
E|--3--------2-------------3-------------0--2--4--5--7--8--9---|
B|-------------------------------------------------------------|
G|--4--------4-------------4-------------1--2--4--6--7--8--9---|
D|-------------------------------------------------------------|
A|-------------------------------------------------------------|
E|-------------------------------------------------------------|

A        F#m
I do a roadhog
Bm           G
Well you can penetrate any place you go
Bm           G
Yes you can penetrate any place you go

I told you so
E7
E|--9--7-----4----2--0----
B|------------------------
G|--9--7-----4----2--1----
D|------------------------
A|------------------------
E|------------------------

All I want  is you
G     D        A
E|-------------------------------------------------------------|
B|-------------------------------------------------------------|
G|-------------------------------------------------------------|
D|-------------------------------------------2-----------------|
A|---2-5-------5--5--5--5---------2--h3--h4-----4--2---------2-|
E|-3-----2--5-----0--0--0--3--h4----------------------3--h4----|

Everything has got to be the way you want it to ... because
G                 D
E|-------------------------------------------------|
B|-------------------------------------------------|
G|-----------------------------------4---7----4----|
D|-------------2---5---2-----4---7---------------5-|
A|-----2--5---------------5----------------------0-|
E|--3----------------------------------------------|

Verse:
I pick a moondog
Well you can radiate every thing you are
Yes you can radiate every thing you are
I wrote a story
Well ou can imitate everyone you know
Yes you can imitate everyone you know
I told you so
All I want is you
Everything has got to be the way you want it to.
Because...

Guitar solo:
A                                                     F#m
E|---------------------------------------------14--------------|
B|-------------10--12--p10----12b(14)-12b(14)------b(14)12-----|
G|--9-11-p9----------------11-------------------------------11-|
D|----------11-------------------------------------------------|
A|-------------------------------------------------------------|
E|-------------------------------------------------------------|

Bm              G
E|----------------------------------------------------|
B|--10--12--12b(15)--(15)--b(15)12--------------------|
G|----------------------------------10--12b(14)12--10-|
D|----------------------------------------------------|
A|----------------------------------------------------|
E|----------------------------------------------------|

Bm             G             E7
E|-----------------------------------0------14------16--14--12-|
B|-12b(15)-(15)--b(15)12---------------------------------------|
G|------------------------12--12/13-----14------16------14--13-|
D|-------------------------------------------------------------|
A|-------------------------------------------------------------|
E|-------------------------------------------------------------|

Verse:
I fell the wind blow
Well you can indicate everything you see
Yes you can indicate anything you see
I wrote a lorry (??? you tell me ???)
Well you can syndicate any boat you row
Yes you can syndicate any boat you row
I told you so
All I want is you
Everything has got to be the way you want it to.
Because...

Ending is same as intro:

Miscellaneous info:

Note this figure played over the A chord in the verses.
John was really into this around the "Let It Be" years.
This is also the basis of the intro and main rhythm part
for "Ive Got A Feeling."

E|--5---5--|
B|--2--h3--|
G|--2---2--|
D|--2--h4--|
A|--0---0--|
E|---------|

Вверх

I Dont Want To Spoil The Party

          C
I dont want to spoil the party so Ill go
G
I would hate my disappointment to show
Am            E       Dm7          G7
Theres nothing for me here so I will disappear
C                 Bb                  C
If she turns up while Im gone please let me know

Ive had a drink or two and I dont care
theres no fun in what I do if shes not there
I wonder what went wrong Ive waited far too long
I think Ill take a walk and look for her

CHORUS:
C
Though tonight shes made me sad
Am7  D7  F    G
I still love her
C
If I find her Ill be glad
Am7 D7    F   G
I still love her

I dont want to spoil the party so Ill go
I would hate my disappointment to show
Theres nothing for me here so I will disappear
If she turns up while Im gone please let me know ...

Ive had a drink or two and I dont care
theres no fun in what I do if shes not there
I wonder what went wrong Ive waited far too long
I think Ill take a walk and look for her

Вверх

I Dont Want To Spoil The Party (2 вариант)

 G
I dont want to spoil the party so Ill go
G                         D
I would hate my disappointment to show
Em            B       Am          D7
Theres nothing for me here so I will disappear
G                  F                  G
If she turns up while Im gone please let me know


G
Ive had a drink or two and I dont care
G				 D
Theres no fun in what I do if shes not there
Em		   B          Am             D7
I wonder what went wrong Ive waited far too long
G                 F                 G
I think Ill take a walk and look for her


G
Though tonight shes made me sad
Em7  A7    C    D
I    still love her
G
If I find her Ill be glad
Em7  A7    C    D
I    still love her

G
I dont want to spoil the party so Ill go
G                         D
I would hate my disappointment to show
Em             B       Am     D7
Theres nothing for me here so I will disappear
G                  F                  G
If she turns up while Im gone please let me know


SOLO
G D Em B Am D7


G
Though tonight shes made me sad
Em7  A7    C    D
I    still love her
G
If I find her Ill be glad
Em7  A7    C    D
I    still love her


G
Ive had a drink or two and I dont care
D
Theres no fun in what I do if shes not there
Em               B          Am             D7
I wonder what went wrong Ive waited far too long
G                   F                 G
I think Ill take a walk and look for her

Вверх

I Feel Fine
mp3

 [D]       [C]         [G]

[G]Babys good to me, you know,
shes happy as can be, you know, she [D]said so.
Im in love with [C7]her and I feel fi[G]ne.
[G]Baby says shes mine, you know,
she tells me all the time, you know, she [D]said so.
Im in love with [C7]her and I feel fi[G]ne.


[G]Im so [Bm]glad that [C]shes my little [D7]girl.
[G]Shes so [Bm]glad, shes [C7]telling all the [D7]world.


That her [G]baby buys her things, you know,
he buys her diamond rings, you know, she [D]said so.
[D7]Shes in love with [C7]me and I feel fi[G]ne.
[D7]Shes in love with [C7]me and I feel fi[G]ne.

Вверх

I Feel Fine (2 вариант)
mp3

riff (repeat as needed):
D                               C
E|-------------------------------------------------------------|
B|-------------------------------------------------------------|
G|-----------------12--11------11--------------------10-9----9-|
D|----12-12-10-------------14---------10--10--8-----------12---|
A|-------12----12-------------------------10-----10------------|
E|-10------------------------------8---------------------------|

G
E|------------------------------------------------------|
B|------------------------------------------------------|
G|----------------5--4-----4-----------------5--4-----4-|
D|----5--5--3-----------7--------5--5--3-----------7----|
A|-------5-----5--------------------5-----5-------------|
E|-3--------------------------3-------------------------|

Verse 1:
G
Babys good to me   you know shes happy as can be
D
You know she said so
C              G
Im in love with her and I feel fine

Verse 2:
G
Baby says shes mine   you know she tells me all the time
D
You know she said so
C              G
Im in love with her and I feel fine

Middle:
G      Bm          C               D7
Im so glad   that shes my little girl
G        Bm             Am             D7
Shes so glad    shes telling all the world

Verse 3:
G
That her baby buys her things you know he buys her diamond rings
D7
You know she said so
C              G
Im in love with her and I feel fine

Solo:

E|-------------------------------------|
B|-------6-------8-------6-------------|
G|--5/7-----7/9-----5/7-----75--3------|
D|----------------------------------5--|
A|-------------------------------------|
E|-------------------------------------|

Then play magic "I Feel Fine" riff as band comes back in.

Then repeat from verse 2 to the end of verse 3, except instead
of the very last line of verse 3, substitute:

D7                C              G
Shes in love with me and I feel fine
D7                C              G
Shes in love with me and I feel fine

Вверх

If I Fell

 		     Ebm
If I fell in love with you
D
Would you promise to be true
Db Bbm
And help me understand
Ebm
Cause Ive been in love before
D
And found that love is more
Em           A
Than just holding hands

D    Em F#m      Em
If I give my heart to you
A                     D  Em F#m
I must be sure from the very  start
Em        A                 D   Em  A
That you would love me more than her

D     Em F#m
If I trust in you
Em            A
Oh please, dont run and hide
D   Em  F#m
If I love you too
Em            A                  D9
Oh please, dont hurt my pride like her
G
Cause I couldnt stand the pain
Gm                        D           A7
And I would be sad if our new love was in vain


D    Em     F#m
So I hope youll see
Em      A
That I would love to love you
D   Em   F#m      Em
And that she will cry
A                 D
When she learns we are two
Gm      C         D
If I fell in love with you

Вверх

If I Needed Someone

   A7
e e e e e e e e   e  e e e e e e e
E-----------0-----|----3---2---0-----
B---3---1-------1-|h3--------------3-
G-----------------|------------------ X2 (band enters 2nd time)
D-0---0---0---0---|(0)---0---0---0---
A-----------------|------------------
E-----------------|------------------

A7                                                                 G/A
e e e e e e e e   e e e e e e e e   e e e e e e e e   e e e e e e e e
E-------0---2---3-|---2---0---------|-------0---2---0-|---2---3---2---0-
B---3-------------|-----------3---3-|---3-------------|---------------3-
G-----------------|-----------------|-----------------|---------------0-
D-0---0---0---0---|-0---0---0---0---|-0---0---0---0---|-0---0---0---0-2-
A-----------------|-----------------|-----------------|---------------3-
E-----------------|-----------------|-----------------|-----------------
If I needed someone to love,          youre the one that Id be thinking of

(G/A)  (G/A)      A7
(w)    (w)       e e e e e e e e   e  e e e e e e e
E-(0)--|-(0)-----|-----------0-----|----3---2---0-----
B-(3)--|-(3)-----|---3---1-------1-|h3--------------3-
G-(0)--|-(0)-----|-----------------|------------------
D-(2)--|-(2)-----|-0---0---0---0---|(0)---0---0---0---
A-(3)--|-(3)-----|-----------------|------------------
E------|---------|-----------------|------------------
If I needed someone

A7                                                                 G/A
e e e e e e e e   e e e e e e e e   e e e e e e e e   e e e e e e e e
E-------0---2---3-|---2---0---------|-------0---2---0-|---2---3---2---0-
B---3-------------|-----------3---3-|---3-------------|---------------3-
G-----------------|-----------------|-----------------|---------------0-
D-0---0---0---0---|-0---0---0---0---|-0---0---0---0---|-0---0---0---0-2-
A-----------------|-----------------|-----------------|---------------3-
E-----------------|-----------------|-----------------|-----------------
If I had some more time to spend,     then I guess Id be with you, my friend

(G/A)  (G/A)      A7
(w)    (w)       e e e e e e e e   e  e e e e e e e
E-(0)--|-(0)-----|-----------0-----|----3---2---0-----
B-(3)--|-(3)-----|---3---1-------1-|h3--------------3-
G-(0)--|-(0)-----|-----------------|------------------
D-(2)--|-(2)-----|-0---0---0---0---|(0)---0---0---0---
A-(3)--|-(3)-----|-----------------|------------------
E------|---------|-----------------|------------------
If I needed someone

Em               F#7                              Bm
w                w              w                 w
E-0--------------|-2------------|-2---------------|-0-------------
B-1--------------|-0------------|-0---------------|-0-------------
G-2--------------|-2------------|-2---------------|-0-------------
D-2--------------|-1------------|-1---------------|-2-------------
A-0--------------|-2------------|-2---------------|-2-------------
E----------------|--------------|-----------------|-0-------------
Had you come some other day then it might not have been like this

Em               F#7            Bm                E
w                w              w                 e e e e e e e e
E-0--------------|-2------------|-0---------------|-----------0-----
B-1--------------|-0------------|-0---------------|---2---3---------
G-2--------------|-2------------|-0---------------|---------------2-
D-2--------------|-1------------|-2---------------|-----------------
A-0--------------|-2------------|-2---------------|-0---0---0---0---
E----------------|--------------|-0---------------|-----------------
But you see now Im too much in love

A7                                                                 G/A
e e e e e e e e   e e e e e e e e   e e e e e e e e   e e e e e e e e
E-------0---2---3-|---2---0---------|-------0---2---0-|---2---3---2---0-
B---3-------------|-----------3---3-|---3-------------|---------------3-
G-----------------|-----------------|-----------------|---------------0-
D-0---0---0---0---|-0---0---0---0---|-0---0---0---0---|-0---0---0---0-2-
A-----------------|-----------------|-----------------|---------------3-
E-----------------|-----------------|-----------------|-----------------
Carve your number on my wall and maybe you will get a call from me

(G/A)  (G/A)      A7
(w)    (w)       e e e e e e e e   e  e e e e e e e
E-(0)--|-(0)-----|-----------0-----|----3---2---0-----
B-(3)--|-(3)-----|---3---1-------1-|h3--------------3-
G-(0)--|-(0)-----|-----------------|------------------
D-(2)--|-(2)-----|-0---0---0---0---|(0)---0---0---0---
A-(3)--|-(3)-----|-----------------|------------------
E------|---------|-----------------|------------------
If I needed someone

(guitar solo)
A7
e e e e e e e e   e e e e e q.   e e e e e e e e   e e e e e q.
E---5---3---2---0-|---2---3---2--|---5---3---2---0-|---2---3---2-
B-----------------|--------------|-----------------|-------------
G-----------------|--------------|-----------------|-------------
D-0---0---0---0---|-0---0---0----|-0---0---0---0---|-0---0---0---
A-----------------|--------------|-----------------|-------------
E-----------------|--------------|-----------------|-------------
Aaah...

G/A                      A7
w             q. q. q   e e e e e e e e   e  e e e e e e e
E-----0-----------|-0-----3-|-----------0-----|----3---2---0-----
B-----3-----------|-3--1----|---3---1-------1-|h3--------------3-
G-----0-----------|-0-------|-----------------|------------------
D-----2-----------|---------|-0---0---0---0---|(0)---0---0---0---
A-----------------|---------|-----------------|------------------
E-----------------|---------|-----------------|------------------
Aaah...

A7                                                                 G/A
e e e e e e e e   e e e e e e e e   e e e e e e e e   e e e e e e e e
E-------0---2---3-|---2---0---------|-------0---2---0-|---2---3---2---0-
B---3-------------|-----------3---3-|---3-------------|---------------3-
G-----------------|-----------------|-----------------|---------------0-
D-0---0---0---0---|-0---0---0---0---|-0---0---0---0---|-0---0---0---0-2-
A-----------------|-----------------|-----------------|---------------3-
E-----------------|-----------------|-----------------|-----------------
If I needed someone to love,          youre the one that Id be thinking of

(G/A)  (G/A)      A7
(w)    (w)       e e e e e e e e   e  e e e e e e e
E-(0)--|-(0)-----|-----------0-----|----3---2---0-----
B-(3)--|-(3)-----|---3---1-------1-|h3--------------3-
G-(0)--|-(0)-----|-----------------|------------------
D-(2)--|-(2)-----|-0---0---0---0---|(0)---0---0---0---
A-(3)--|-(3)-----|-----------------|------------------
E------|---------|-----------------|------------------
If I needed someone

A7                                                                 G/A
e e e e e e e e   e e e e e e e e   e e e e e e e e   e e e e e e e e
E-------0---2---3-|---2---0---------|-------0---2---0-|---2---3---2---0-
B---3-------------|-----------3---3-|---3-------------|---------------3-
G-----------------|-----------------|-----------------|---------------0-
D-0---0---0---0---|-0---0---0---0---|-0---0---0---0---|-0---0---0---0-2-
A-----------------|-----------------|-----------------|---------------3-
E-----------------|-----------------|-----------------|-----------------
If I had some more time to spend,     then I guess Id be with you, my friend

(G/A)  (G/A)     A7
(w)    (w)      e e e e e e e e   e  e e e e e e e
E-(0)--|-(0)-----|-----------0-----|----3---2---0-----
B-(3)--|-(3)-----|---3---1-------1-|h3--------------3-
G-(0)--|-(0)-----|-----------------|------------------
D-(2)--|-(2)-----|-0---0---0---0---|(0)---0---0---0---
A-(3)--|-(3)-----|-----------------|------------------
E------|---------|-----------------|------------------
If I needed someone

Em               F#7                              Bm
w                w              w                 w
E-0--------------|-2------------|-2---------------|-0-------------
B-1--------------|-0------------|-0---------------|-0-------------
G-2--------------|-2------------|-2---------------|-0-------------
D-2--------------|-1------------|-1---------------|-2-------------
A-0--------------|-2------------|-2---------------|-2-------------
E----------------|--------------|-----------------|-0-------------
Had you come some other day then it might not have been like this

Em               F#7            Bm                E
w                w              w                 e e e e e e e e
E-0--------------|-2------------|-0---------------|-----------0-----
B-1--------------|-0------------|-0---------------|---2---3---------
G-2--------------|-2------------|-0---------------|---------------2-
D-2--------------|-1------------|-2---------------|-----------------
A-0--------------|-2------------|-2---------------|-0---0---0---0---
E----------------|--------------|-0---------------|-----------------
But you see now Im too much in love

A7                                                                 G/A
e e e e e e e e   e e e e e e e e   e e e e e e e e   e e e e e e e e
E-------0---2---3-|---2---0---------|-------0---2---0-|---2---3---2---0-
B---3-------------|-----------3---3-|---3-------------|---------------3-
G-----------------|-----------------|-----------------|---------------0-
D-0---0---0---0---|-0---0---0---0---|-0---0---0---0---|-0---0---0---0-2-
A-----------------|-----------------|-----------------|---------------3-
E-----------------|-----------------|-----------------|-----------------
Carve your number on my wall and maybe you will get a call from me

(G/A)  (G/A)      A7
(w)    (w)       e e e e e e e e   e  e e e e e e e
E-(0)--|-(0)-----|-----------0-----|----3---2---0-----
B-(3)--|-(3)-----|---3---1-------1-|h3--------------3-
G-(0)--|-(0)-----|-----------------|------------------
D-(2)--|-(2)-----|-0---0---0---0---|(0)---0---0---0---
A-(3)--|-(3)-----|-----------------|------------------
E------|---------|-----------------|------------------
If I needed someone

A7                                   A
e e e e e e e e   e  e e e e e e e   w
E-----------0-----|----3---2---0-----|------||
B---3---1-------1-|h3--------------3-|-3----||
G-----------------|------------------|-2----||
D-0---0---0---0---|(0)---0---0---0---|-0----||
A-----------------|------------------|------||
E-----------------|------------------|------||

Вверх

Ill Be Back

Bsus  A

Am          C        G         Fmaj7    E7
You know if you break my heart Ill go, but Ill
A    Bsus  A
be back again
Am          C     G        Fmaj7    E7
Cos I told you once before goodbye, but I came
A    Bsus  A
back again
F#m                  Bm
I love you so, Im the one who wants you, yes Im the one who
E7
wants you.

Bm  E7  Bm  E7
Oh  ho, oh  ho

Oh you could find better things to
do than to break my heart again
This time I will try to show that Im not trying to pretend

Bm                    C#m               F#m
I thought that you would realise that if I ran away from you
B7                         Bm              E7
That you would want me too but I got a big surprise

Bm  E7  Bm  E7
Oh  ho, oh  ho

Oh you could find better things
to do than to break my heart again
This time I will try to show that Im not trying to pretend

F#m                Bm                           E7
I wanna go, but I hate to leave you you know I hate to leave you

Bm  E7  Bm  E7
Oh  ho, oh  ho

Oh you, if you break my heart Ill go but Ill be back again.

Вверх

Ill Be On My Way

      A             E
The sun is fading away
A                    D
Thats the end of the day.
A
As the june light
E7
Turns to moon light
A       D      A    E7
Ill be on my way.


Just one kiss and Ill go

Dont hide the tears that dont show.

A
As the june light
E7
Turns to moon light
A       D      A    E7
Ill be on my way.

B                     E
To where the winds dont blow
B               B
And northern rivers flow
F#7      B      E7
This way will I go.

A                      E7
They where right I was wrong
A                    D
True love didnt last long.
A
As the june light
E7
Turns to moon light
A       D      A    E7
Ill be on my way.


A
Ill  Be on my way

Вверх

Ill Cry Instead

         G       C9       G     C9    G    C9  G   C9
Ive got every reason on earth to be mad,
G       C9      G     C9     D
Cos I just lost the only girl I had
C7
If I could see you now, Id try to make you say it somehow
G               D      G
But I cant, so Ill cry instead.

I got a chip on my shoulder thats bigger than my feet
I cant talk to people that I meet
If I could get my way, Id get myself locked up today
But I cant, so Ill cry instead.

Bm
Dont wanna cry when theres people there
A
I get shy when they start to stare,
D                          E7               A7       D7
Im gonna hide myself away, but Ill come back again some day

And when I do you better hide all the girls
Im gonna break their hearts all round the world
Yes Im gonna break em in two,
and show you what your lovin myn can do
Until then Ill cry instead.

Вверх

Ill Follow The Sun

G
One day
F7           C
You'll look
D
To see I've gone
C         Em      D7
For tomorrow may rain so
G          C   F  C
I'll follow the sun.

C7           Dm               Fm                  C
And now the time has come and so my love I must go.
C7           Dm             Fm                     C  Dm
And though I lose a friend, In the end you will know, Oh sun.

Some day.
You'll know,
I was the one.
But tomorrow may rain, so,
I'll follow the sun.

One day,
You'll find,
That I have gone.
But tomorrow may rain, so,
I'll follow the sun.
C    F
sun.

Вверх

Ill Follow The Sun (2 вариант)

A        G7          D            E7
One day, youll look, to see Ive gone
D          Bm    E7       A7         D
For tomorrow may rain, so, Ill follow the sun

A         G7          D          E7
Some day, youll know, I was the one
D          Bm     E7      A7         D
But tomorrow may rain, so, Ill follow the sun

D D7        G7                 Gm                D
And now the time has come, and so my love I must go
D7           G7             Gm                  D
And though I lose a friend, in the end you will know,
Em7
Oh....oh.....

A        G7           D           E7
One day, youll find, that I have gone
D          Bm     E7     A7         D
But tomorrow may rain so, Ill follow the sun

Вверх

Ill Follow The Sun (3 вариант)

C   F   C

G    F7           C          D7
One day youll look to see Ive gone.
C       Am/B       D7   G7         C     F  C
For tomorrow may rain, so Ill follow the sun.

G      F7          C         D7
Some day youll know I was the one.
C         Am/B      D7   G7         C
But tomorrow may rain, so Ill follow the sun.

C7       F7
And now the time has come
Fm6                C
And so my love I must go.
C7         F7
And though I lose a friend,
Fm6               C     Dm7
In the end you will know, oh.

G     F7          C           D7
One day youll find that I have gone.
C       Am/B      D7   G7         C     F  C
For tomorrow may rain so Ill follow the sun.

G         F7        C         D7
e|----3----|----5----|-----8-7-|-10------|
B|-3-------|-4-------|---8-----|---------|
G|---------|---------|---------|---------|
D|---------|---------|---------|---------|
A|---------|---------|---------|---------|
E|---------|---------|---------|---------|
1 2 3 4   1 2 3 4   1 2 3 4   1 2 3 4

C         Am/B      D7    G7        C
Yes, tomorrow may rain, so Ill follow the sun.

Chorus

G     F7          C           D7
One day youll find that I have gone.
C       Am/B      D7   G7         C     F  C
For tomorrow may rain so Ill follow the sun.

Вверх

Ill Get You

         Db         Ab      Db       Ab
Oh yeah,  oh yeah, oh yeah, oh yeah.
Db                              Gb            Ab7
Imagine Im in love with you its easy cause I know;
Db             Bm
Ive imagined Im in love with you
Gb                      Ab
many, many, many times before.
Db           Abm            Db
Its not like me to pretend, but Ill get you.
Bbm
Ill get you in the end;
Gb                        Ab7
Yes, I will, Ill get you in the end.


(same as first verse)

Db         Ab      Db       Ab
Oh yeah,  oh yeah, oh yeah, oh yeah.
I think about you night and day.
I need you and its true;
When I think about you I can say
Im never, never, never never blue.
So Im telling you, my friend,
That Ill get you, Ill get you in the end;
Yes, I will, Ill get you in the end.


(break):

Gb
Well, theres gonna be a time
Db
When Im gonna change your mind.
Eb7                             Ab7
So you might as well resign yourself to me. Oh yeah.

Вверх

Imagine

        С                         F
Imagine  there?s  no  heaven
C                      F
It?s  easy  if  you  try
C                   F
No  hell  below  us
C                     F
Above  us  only  sky
F        A            D
Imagine  all  the  people
G                  G7
Living  for  today...

G                   G       C   EM
Aha  you  may  say  I?m  a  dreamer
F          G                  C
But  I?m  not  the  only  one
G              С                 G EM
I  hope  someday  you?ll  join  us
C           G            С
And  the  world  will  be  as  one

Imagine  there?s  no  countries
It  isn?t  hard  to  do
Nothing  to  kill  or  die  for
And  no  religion  too
Imagine  all  the  people
Living  life  in  peace...

Aha  you  may  say  I?m  a  dreamer
But  I?m  not  the  only  one
I  hope  someday  you?ll  join  us
And  the  world  will  be  as  one

Imagine  no  possessions
I  wonder  if  you  can
No  need  for  greed  or  hunger
A  brotherhood  of  man
Imagine  all  the  people
Sharing  all  the  world...

Aha  you  may  say  I?m  a  dreamer
But  I?m  not  the  only  one
I  hope  someday  you?ll  join  us
And  the  world  will  live  as  one


P.S.В куплете основной упор делается на басовые струны

Вверх

Im A Loser

       Am7            D7
Im a loser,   Im a loser,
Am7          F       D7
And Im not what I appear to be.


G          Dm          F           G
Of all the love I have won or have lost
Dm            F          G
There is one love I should never have crossed.
Dm        F          G
She was a girl in a million my friend,
Dm              F          G
I should have known she would win in the end.


Chorus:
Am7 D7        Am7                D7
Im a loser, and I lost someone whos near to me
G  Em          Am7          F       D7
Im a loser, and Im not what I appear to be.


Although I laugh and I act like a clown
Beneath this mask I am wearing a frown.
My tears are falling like rain from the sky
Is it for her or myself that I cry

Chorus.

What have I done to deserve such a fate
I realise I have left it too late.
And so its true pride comes before a fall
Im telling you so that you dont lose all.

Chorus.

Вверх

I me mine

Am               D
All thru' the day
G          E7         Am
I me mine, I me mine, I me mine.
D
All thru' the night
G            E7        Am
I me mine, I me mine, I me mine.
Dm            E
Now they're frightened of leaving it,
Dm6        G
Everyone's weaving it,
Dm6        F              E
Coming on strong all the time.
Am Am(#7)            Am7  Am6          Fmaj7  E Fmaj7 E Fmaj7 E7
All        thru' the day       I me mine.
All I can hear
I me mine, I me mine, I me mine.
Even those tears
I me mine, I me mine, I me mine.
No one's frightened of playing it
Everyone's saying it,
Flowing more freely than wine
All thru' the day I me mine.
A7
I I me me mine
D7
I I me me mine
I I me me mine
E Fmaj7 E Fmaj7 E Fmaj7 E
I I me me mine
и КОНЦОВОЧКА...
Am Am(#7)            Am7 Am6     Fmaj7      Am
All     thru' your life    I me mine
Dm6          Am(#7)       Am6          Fmaj7
X-X-+-+-+-+  X-+-+-+-+-+  +-X-+-+-+-+  +-+-+-+-+-+
| | | | | 1  | | | 1 2 |  | | | | | |  | | | | 1 |
+-+-+-+-+-+  +-+-+-+-+-+  +-+-+-+-+-+  +-+-+-+-+-+
| | | 2 | |  | | 3 | | |  | | | | | |  | | | 2 | |
+-+-+-+-+-+  +-+-+-+-+-+  +-+-+-+-+-+  +-+-+-+-+-+
| | | | | |  | | | | | |  | | | | | |  | | 3 | | |
+-+-+-+-+-+  +-+-+-+-+-+  +-+-+-+-+-+  +-+-+-+-+-+
| | 2 | | |
+-+-+-+-+-+
1 | | 3 3 3
+-+-+-+-+-+

Вверх

Im Happy Just To Dance With You

 Am  Dm  E      Am  Dm  E

Am
Before this dance is through
Dm     E
I think Ill love you too,
Dm             G7         C    G7
Im so happy when you dance with me.
C               Am7            Dm7  G7
I do want to kiss or hold your hand,
C             Am7        Dm7  G7
If its funny try and understand.
F                              C   Am7
There is really nothing else Id rather do
Dm            G+         C    G
Cause Im happy just to dance with you.
C              Am7            Dm7  G7
I dont need to hug or hold you tight,
C                Am7           Dm7  G7
I just wanna dance with you all night.
F                                    C   Am7
In this world theres nothing I would rather do,
Dm            G+         C
Cause Im happy just to dance with you.

chorus:
(open)  Am7              Dm   E
Just to dance with you, (oh   oh)
Am                 Dm   E
Is everything I need (oh   oh)

Before this dance is through,
I think Ill love you too,
Im so happy when you dance with me.
If somebody tries to take my place,
Lets pretend we just cant see his face.
In this world theres nothing I would rather do,
Cause Im happy just to dance with you

chorus

Am7          Dm             G+        Am     Dm   E
Ive discovered Im in love with you   (oh   oh)
Dm            G+         Am
Cause Im happy just to dance with you
Dm7  E    Dm   G7   C6
oh   oh   oh   oh   oh!

Вверх

Im Looking Through You

              Dm7/  /  / Am   /    /    /  G ///
Im looking thru you       Where did you go

C/  F     /  Dm7 / /  / Am /     / /    G /// Am
I thought I knew you       What did I know?

/    /     /   F  /   /    /   C   /Dm7 /  G  ///
You dont look different    But you have changed

C/    F  /   Dm7 / /  / F7 /     / /    C /// /
Im looking thru you       Youre not the same


/    /     /  Dm7/  /  / Am/  /  /    G ///
Your lips are moving       I cannot hear

C/     F    /  Dm7//  /  Am /        /     /      G /// Am
Your voice is soothing     But the words arent clear

/    /     /   F  /     /   /     C   / Dm7 /  G  ///
You dont sound different   Ive learnt the game

C/    F  /   Dm7 / /  /  F7 /     / /      C /// ////
Im looking thru you        Youre not the same

F   /  /   /   /  /    /   /    C   /   /   /  ////
Why, Tell me why did you not treat me right

F   / /  /  /  /  /    /     C  /  /  /G7 /  /  /
Love has a nasty habit of disappearing overnight

C/     F    /  Dm7//  /  Am /   /     /   G /// C
Youre thinking of me       The same old way

/    F    /Dm7  ///      Am /   /   /   G///
You were above me          But not today

Am/ /     F  /     /      /   C   / Dm7  G///   C
The only difference        Is youre down there

/    F  /   Dm7/ /  /    F7/    /    /   C/// /
Im looking thru you        and youre nowhere

Вверх

Im Looking Through You (2 вариант)

 G  D  G  D  G C G C G C G C
G     C        Am7       Em             D
Im looking through you, where did you go?
G     C      Am7       Em         D
I thought I knew you, what did I know?
Em               D   C         G    C     D
You dont look different, but you have changed
G      C       Am7       C7               G  C G C G C G C
Im looking through you, youre not the same

Your lips are moving, I cannot hear
Your voice is soothing, but the words arent clear
You dont sound differnt, Ive learned the game
Im looking through you, youre not the same

CHORUS:
C                              G
Why, tell me why, did you not treat me right?
C                             Dsus4       D
Love has a nasty habit of disappearing overnight

Youre thinking of me, the same old way
You were above me, but not today
The only difference is youre down there
Im looking through you, any other way

FIRST VERSE, CHORUS
G C G         C                G C G C              G       C
Yeah!, Well, baby youve changed, ah, Im looking through you

Вверх

I’m Only Sleeping

z - x24443
riff 1 - D------------    riff 2 - D-------2-
A-----2------             A-----2---
E-0-3---3--0-             E-0-3-----
Em                         Am
When I wake up early in the morning
G             H        z   H
Left my heart Im still yawning
Em                         Am
When Im in the midll of a dream
G             Hm             H
Stay in bed  Float upstream  float  upstream
G
Please dont wake me
Asus4 Am     Asus     Am
No dont  shake me
Hm             Am
Leave me where I am
Em       riff 1
Im only sleeping

Everybody seems to think Im lazy
I dont mind  I think theyre crazy
Running everywhere at such a speed
All they find  theres no need
Please dont spoil my day
Im miles away and after all
Em      riff 1    Em    riff 2
Im only sleeping...
Dm                    Em                Am
Keaping an eye on the world going by my window
G         H
Taking my time

Lying there and staring at the ceiling
Waiting for a sleepy feeling
Please dont spoil my day
Im miles away and after all
Em        riff 1   Em    riff 2
Im only sleeping

Вверх

Im So Tired

    A  G#7      D               E7
Im so tired, I havent slept a wink,
A  F#m7      D              E7
Im so tired, my mind is on the blink.
A               E+         F#m          Dm
I wonder should I get up and fix myself a drink, no, no, no

Im so tired, I dont know what to do,
Im so tired, my mind is set on you.
I wonder should I call you but I know what you would do...

A
You say Im putting you on but its no joke,
its doing me harm you know I
E7
cant sleep, I cant stop my brain,
you know its three weeks, Im going insane
D
you know Id give you everything
A
Ive got for a little peace of mind.

Im so tired, Im feeling so upset.
Although Im so tired, Ill have another
cigarette and curse Sir Walter Raleigh,
he was such a stupid get.
You say...

Вверх

In My Life

Main Riff: E|---5-----0-4-|
B|-2---2-3-----|
G|-2-----------|

There are places Ill remember
A             F#m
All my life though some have changed
Bm Dm       A
Some for ever not for better
A            F#m
Some have gone, and some remain.
Bm Dm     A
All these places have their moments
F#m               Bm
With lovers and friends, I still can recall
G                     A
Some are dead and some are living
F#m               Bm
In my life, Ive loved them all
D  Dm         A
{Repeat main riff, and continue as verse above}

But of all these friends and lovers
There is no one compared with you
And these memories lose their meaning
When I think of love as something new
Thought I know Ill never lose affection
For people and things that went before
I know Ill often stop and think about them
In my life Ill love you more
In my life Ill love you more

At the end, there is the first riff above,then a higher Dm
(played as a bar chord at the 5th fret) then the riff below:

E7       A
Last Riff: E|---5-----0-4----4--2--4--5-|
B|-2---2-3--------3--------5-|
G|-2--------------4--------6-|
D|-------------------------7-|

e|-------5-------------------4---------5-------------------4-|
B|--2---------2----3----5---------2---------2----3----5------|
G|-----------------------------------------------------------|
D|-----------------------------------------------------------|
A|-----------------------------------------------------------|
E|-----------------------------------------------------------|

Then the ending:

e|------5------------------4--------4----2----4---5-|
B|-2--------2----3----5-----------------------------|
G|--------------------------------------------------|
D|--------------------------------------------------|
A|--------------------------------------------------|
E|--------------------------------------------------|

Вверх

I Saw Her Standing There
mp3

              A			     D7		 A
Well she was just seventeen, if you know what I mean,
E7
And the way she looked was way beyond compare,
A           A7	    D     F        A	E7	 A
So how could I dance with another, when I saw her standing there

A                    D7	       A
Well she looked at me, and I, I could see,
E7
That before too long Id fall in love with her.
A            A7          D     F        A	      E7      A
She wouldnt dance with another, when I saw her standing there.

D7
Well my heart went boom when I crossed that room,
E         D
And I held her hand in mine...

A			          D7       	  A
Well we danced through the night, and we held each other tight,
E7
And before too long I fell in love with her.
A          A7          D     F         A        E7      A
Now Ill never dance with another since I saw her standing there

[Instrumental same as verse]

D7
Well my heart went boom when I crossed that room,
E         D
And I held her hand in mine...

A			          D7       	  A
Well we danced through the night, and we held each other tight,
E7
And before too long I fell in love with her.
A          A7          D     F         A        E7       A
Now Ill never dance with another since I saw her standing there
A        E7       A
Since I saw her standing there.
A        E7       A
Since I saw her standing there.

Вверх

I Saw Her Standing There (2 вариант)
mp3

              E7                     A7          E7
Well she was just seventeen and you know what I mean
B7
And the way she looked was way beyond compare
E           E7           A7    C7
So how could I dance with another oh,
E7      B7       E7
when I saw her standing there

E7                      A7      E7
Well she looked at me and I, I could see
B7
That before too long Id fall in love with her
E            E7           A7
She wouldnt dance with another
C7          E7      B7       E7
Oh,  when I saw her standing there

A7
Well my heart went boom when I crossed that room
B7  A7
and I held her hand in mine

E7
Well we danced through the night
A7              E7
and we held each other tight
B7
And before too long I fell in love with her
E          E7         A7
Now Ill never dance with another
C7        E6        B7       E7
Oh, since I saw her standing there

E7              B7       E7
Since I saw her standing there
E7                 E7      B7       E7
Yeah, Well since I saw her standing there

Вверх

I should have known better

  G D G      D           G               D         G
I      should have known better with a girl like you
D           G          D              Em
that I would love everything that you do
C             D            G D G D
And I do   Hey hey hey    And I do.
I - never realised what a kiss could be,
This could only happen to me
Can't you see.
G                B7
Can't you see?
Em           C               G        B7
That when I tell you that I love you  Oh
Em           Em              G               G7
You're gonna say you love me too noo noo noo.  Oh
C            D                G Em C            D             G
And when I ask you to be mine you're gonna say you love me too.
D G D
So oh
I should have realised a lot of things before
If this is love you've got to give me more
Give me more.
Give me more hey hey hey give me more
So I never realised what a kiss could be
This could only happen to me
Can't you see, can't you see
That when I tell you that I love you, oh
You've gonna say me love you too
And when I ask you to be mine
You've gonna say me love you too
G      D        G D G      D          G D G
You love me too,     You love me too.

Вверх

It’s for you

   Em  Em7  A   Am
1.I'd say some day
G             C     F        Bb
I'm bound to give my heart away.
Am  D7
When I do     it's for
Em  Em7  A   Am
I'd say some day
G             C     F        Bb
I'm bound to give my heart away.
Am  D7           G
When I do     it's for tou.
Am6   B7+  B7   Em
They said that love was a lie
Told me that I should never try
A     Am               Em
to find somebody who'd be kind,
Am6          B7
Kind to only me.
Am6  B7       Em
So   I  just tell them they're right,
who wants a fight?
A
Tell them I quite agree.
Am            Em
Nobody'd love me,
Am6            B7
Then I look at you and
2. You love, true love,
Seems to be all I'm thinking of - but it's true
3. Love comes, love showes,
I give my heart and no-one knows that I do.
И концовочка...
D7           G Cmaj7 Fmaj7 Bm7
it's for you
G   Cmaj7 Fmaj7 Bm7          Em   Bm7 Em
it's for you.                It's for you.
Em7         B7+          Am6          Cmaj7        Fmaj7
+-+-+-+-+-+  +-+-+-+-+-+  +-+-+-+-+-+  +-+-+-+-+-+  +-+-+-+-+-+
| | | | | |  | | 1 | | |  | | | | 1 |  | | | | | |  | | | | 1 |
+-+-+-+-+-+  +-+-+-+-+-+  +-+-+-+-+-+  +-+-+-+-+-+  +-+-+-+-+-+
| 2 3 | | |  | 2 | 3 | |  | | 2 3 | 4  | | 2 | | |  | | | 2 | |
+-+-+-+-+-+  +-+-+-+-+-+  +-+-+-+-+-+  +-+-+-+-+-+  +-+-+-+-+-+
| | | | 4 |  | | | | | 4  | | | | | |  | 3 | | | |  | | 3 | | |
+-+-+-+-+-+  +-+-+-+-+-+  +-+-+-+-+-+  +-+-+-+-+-+  +-+-+-+-+-+

Вверх

Its Only Love

   C           Am
E|-------------0-|
B|-1---0-------1-|
G|-------2-0---2-|  repeat
D|-------------2-|
A|-------------0-|
E|---------------|

C     Em        Bb     F      G   G7  G+       G
I get high when I see you go by,         my oh my

(emphasize the following notes while playing the chords,
or pick them):
E|------------------------------------------------------|
B|-1------0---------------------------------------------|
G|------------------3------2------0---------------------|
D|------------------------------------3---1----------0--|
A|------------------------------------------------------|
E|------------------------------------------------------|

C      Em      Bb    F          G   G7  G+       G
When you sigh my my inside just flies,      butterflies
F          G              C      Am
Why am I so shy when Im beside you ?

Bb               G
Its only love and that is all
C              Am    (as in intro)
Why should i feel the way i do?

Bb               G                F           G
Its only love and that is all, but its so hard, lovin you

Is it right that you and i should fight every night
Just the sight of you makes nighttime bright, very bright
Havent I the right to make it up, girl?

Its only love and that is all,
Why should i feel the way i do?
Its only love and that is all, but its so hard, lovin you
F               G          C     Am    C    Am
Yes its so hard, lovin you, lovin you.

Вверх

Ive Got A Feeling

 Intro:                      Main Riff:
A           D/A             A           D/A
|--------5------------5-----|--------5------------5----
|--------2----2---3---3-----|--------2----2---3---3----
|-----2-----2_h_4---4---2---|-----2-----2_h_4---4---2--
|---------------------------|--2-----------------------
|---0-----------------------|--0-----------------------
|---0-----------------------|--------------------------

w/ Main Riff x 8
A             D/A  | A              D/A        | A  D/A       | A        D/A
Ive got a feeling a feeling deep inside Oh yeah        Oh yeah  Thats right


A             D/A  |   A           D/A       | A  D/A     | A   D/A
Ive got a feeling a feeling i cant hide oh no  no    oh no          oh no


Git 1 plays chords when not playing the riff (see bottom for shapes)
Git 2 plays:

A7                              E       G          D
|-------------------------------|-----------------------------------
|--8-------8------8------8------|-----------------------------------
|--9-9-9---9-9-9--9-9-9--9-9-9--|-----------------------------------
|--7-7-7---7-7-7--7-7-7--7-7-7--|-----------------------------------
|-------------------------------|---------0-2-3-4-5-----------------
|-------------------------------|-0-2-3-4---------------------------
yeah                  yeah             ive got a feel

w/ Main Riff Git 1 x 10
A            D/A           A            D/A
|----12---9---------------|----12---9---------------
|----14---10--7- 8-7------|----14---10--7- 8-7------
|--------------7-h7-7------|--------------7-h7-7------
|--------------7- 9-7------|--------------7- 9-7------
|--------------------------|--------------------------
|--------------------------|--------------------------
- ing  yeah

A     D/A                 A                    D/A
|------------5------5----|---------5--------------5--------5------5-
|------------5------5----|---------5--------------5--------5------5-
|------------6------6----|---------6--------------6--------6------6-
|------------7------7----|---------7--------------7--------7------7-
|------------------------|------------------------------------------
|------------------------|------------------------------------------
Oh  please believe me,Id hate to miss the train   Oh yeah
Ive got a  feel ing  that keeps me on  my  toes    Oh yeah


A     D/A          A             D/A      A                 D/A
|-5--5-------------|-5--5--------5------5-|----5-------------------------
|-5--5--7--8-------|-5--5--7--8--5------5-|----5--------------7-------5--
|-6--6--7--7-------|----6--7--7--6------6-|----6--------------7-------6--
|-7--7--7--9-------|----7--7--9--7------7-|----7--------------7-------7--
|------------------|----------------------|------------------------------
|------------------|----------------------|------------------------------
yeah       Oh yeah.                      And if you leave me        I
Oh yeah.                      Ive got a feeling I think that


A                 D/A          A     D/A           A     D/A
|-----------------------5------|-5--5--------------|-5--5--------------
|------------5----------5------|-5--5--7--8--------|-5--5--7--8--7-----
|------------6--7---7---6------|-6--6--7--7--------|-6--6--7--7--7-----
|------------7--7---7---7------|-7--7--7--9--------|-7--7--7--9--7-----
|------------------------------|-------------------|-------------------
|------------------------------|-------------------|-------------------
wont be late again   oh no               oh no                oh no
every    body knows   oh yeah             oh yeah            oh yeah


A7                             E       G          D
|------------------------------|-----------------------------------
|--8------8------8------8------|-----------------------------------
|--9-9-9--9-9-9--9-9-9--9-9-9--|-----------------------------------
|--7-7-7--7-7-7--7-7-7--7-7-7--|-----------------------------------
|------------------------------|---------0-2-3-4-5-----------------
|------------------------------|-0-2-3-4---------------------------
yeah                  yeah             Ive got a feel
yeah                  yeah             Ive got a feel


A            D/A           A              D/A
|----12---9---------------|----12---9-----------------
|----14---10--7- 8-7------|----14---10----7- 8-7------
|--------------7-h7-7------|----------------7-h7-7------
|--------------7- 9-7------|----------------7- 9-7------
|--------------------------|----------------------------
|--------------------------|----------------------------
- ing  yeah                 Ive got a feeling
- ing  yeah                                 yeah

_____
|1.
E                                        G7
|-10b12----10b12------10b11~11~11~11r10-7-|-7---7----7--------7------7------7-
|-----------------------------------------|-8b9b10---8b10r8---8b10r8-8b10r8-8-
|-----------------------------------------|-----------------------------------
|-----------------------------------------|-----------------------------------
|-----------------------------------------|-----------------------------------
|-----------------------------------------|-----------------------------------
All these years Ive been wandering around,Wondering how come nobody told me


D7
|----8b10~10----------------8b10~10~10~10r8--5--------------
|-----------------------------------------------------------
|-----------------------------------------------------------
|-----------------------------------------------------------
|-----------------------------------------------------------
|-----------------------------------------------------------
All that I was looking for was somebody Who looked like you.


A7          ///////////
|-----------------|------------------------||
|-----------------|-----------------------x||
|-7b9~9b10b11r9r8-|-(7)b8~8~8~8~8~-5b7r5---||
|-----------------|----------------------7x||
|-----------------|------------------------||
|-----------------|------------------------||

____
|2.   w/ Main Riff x6
A        D/A              A          D/A
||---5--5-----------------|-5--5---5----------------
||---5--5--7- 8--7--------|-5--5---5-0-7- 8--7---7--
||---6--6--7-h7--7--------|-6--6---6---7-h7--7---7--
||---7--7--7- 9--7--------|-7--7---7---7- 9--7---7--
||------------------------|-------------------------
||------------------------|-------------------------
Evrybody had a hard year Evrybody had a good time
Evrybody had a good year,Evry let their hair down


A              D/A           A               D/A
|---5--5----------------------|---5--5-------------------------
|---5--5--7- 8-----7-----7----|---5--5--7- 8-----7-----7-------
|---6--6--7-h7-----7-----7----|---6--6--7-h7-----7-----7-------
|---7--7--7- 9-----7-----7----|---7--7--7- 9-----7-----7-------
|-----------------------------|--------------------------------
|-----------------------------|--------------------------------
Evrybody had a   wet   dream,  Evrybody saw the sunshine
Evrybody pulled their socks up Evrybody put their foot down.


______                                ___
|1.                                   |2.  See end for notes
A       D/A    A        D/A           A7 [Edim/A      D#dim/A Ddim/A]
|--------------|---------------------||-------------------------------
|--------7--7--|---5--5--7- 8-----7-x||----8-8-8--8-8-8--7-7-7--6-6-6-
|--------7--7--|---6--6--7-h7-----7--||--9---9-9--9-9-9--8-8-8--7-7-7-
|--------7--7--|---7--7--7- 9-----7-x||-----(8)---------(7)----(6)----
|--------------|---------------------||-------------------------------
|--------------|---------------------||-------------------------------
Oh yeah,    Oh    yeah.


[C#dim/A        Cdim/A Bdim/A]     A        D/A         A       D/A
|-------------------------------|-----5----------5---|----5-----------5----||
|-5-5-5--5-5-5--6-6-6--7-7-7--8-|--------------------|---------------------||
|-6-6-6--6-6-6--7-7-7--8-8-8--9-|---------2---2----2-|--2-----2---2--------||
|(5)-----------(6)----(7)-------|---2---2-h-4--4-----|------2---4---4----2-||
|-------------------------------|-0------------------|-0-------------------||
|-------------------------------|--------------------|---------------------||

______
w/ Main riff 4x                                  |1.
A        D/A            A        D/A              A        D/A
||-------12-12b14~r12-----|---9------------------12-|------------------------
||x--12b14----------------|--------------10-12b14---|-----------7---8----7---
||------------------------|-------------------------|-----------7 h 7----7---
||x--1.-I-got-a-feeling-a-|-feeling-i-cant-hide-o-no|-----------7---9----7---
||---2.-I-got-a-feeling-a-|-feeling-deep-inside-o-ye|--------oh---yeah-------
||------------------------|-------------------------|------------------------
Evrybody had a good year Evrybody had a hard time Evrybody had a wet dream
Evrybody had a good year,Evry let their hair down

_____
|2.
A         D/A                     A           D/A
|----------------------------||-----5--------------------------
|-----------7---8--7---7----x||-----5----5------7---8--7----7--
|-----------7-h-7--7---7-----||-----6-----------7-h-7--7----7--
|-----------7---9--7---7----x||-----7-----------7---9--7----7--
|----------------------------||--------------------Oh-no-no-no-
|----------------------------||--------------------------------
Everybody saw the sun shine   Evrybody pulled their socks up

A         D/A                     A7 [Edim/A D#dim/A Ddim/A]
|--------5----------------5-------|----------------------------
|-5--5---5--7- -8---------7-------|------8-----7-----7---------
|-6--6---6--7-h-7---------7-------|------9-9-9-8-8-8-8---------
|-7--7---7--7- -9---------7-------|----------------------------
|-----------------------------yeh-|----------------------------
|---------------------------------|----------------------------
Everybody put their foot down oh   yeah

[C#dim/A    Ddim/A D#dim/A] [Edim/A D#dim/A Ddim/A]
|---------------------------|-----5-5-5-7-7-7-8-8-8--
|-5-5--5-5-5-7-7-7-6-6-6----|-5---5-5-5-6-6-6-7-7-7--
|-6-6--6-6-6-8-8-8-7-7-7----|-6---6-6-6-7-7-7-8-8-8--
|---------------------------|------------------------
|---Ive-got-a-feeling-------|------------------------
|---------------------------|------------------------

[C#dim/A  Ddim/A D#dim/A] [Edim/A D#dim/A Ddim/A]
|-9-9-9-9-9-9-8-8-8-7-7-7-|-5---5-5-5-7-7-7-8-8-8-
|-8-8-8-8-8-8-7-7-7-6-6-6-|-5---5-5-5-6-6-6-7-7-7-
|-9-9-9-9-9-9-8-8-8-7-7-7-|-6---6-6-6-7-7-7-8-8-8-
|-------------------------|-----------------------
|-------------------------|---------------Ive-got-
|-------------------------|----------------a-feel-
Oh yeah

[C#dim/A  Ddim/A D#dim/A]  A
|-9----9-9-9-8-8-8-7-7-7--|----------------------------||
|-8----8-8-8-7-7-7-6-6-6--|-5--------------------------||
|-9----9-9-9-8-8-8-7-7-7--|-6--------------------------||
|-------------------------|-7--------------------------||
|-ing--------yeah---------|----------------------------||
|-------------------------|----------------------------||

Notes:

///// Vibrato
7b8~8      Pluck,Bend up a semitone from 7th fret hold and strike again
(8)        Implied note [ghost]
7b9r7      Pluck, bend 7th fret up two semitones, pluck, release and pluck

A7  x02223      | This is
G   320003     x| supposed        There are a couple of really
E   032200      | to be           nifty bass runs in this song
D   x00232     x| a repeat        which I might add if there
G7  320001      | sign            is any interest?
D7  x00212

Guitar 1 wierd shape info

The tab here is shows the timing that should
be used. They are triplets.

[Edim/A    D#dim/A Ddim/A] [C#dim/A Cdim/A Bdim/A]
Bdim/A    x0343x  |-------------------------|--------------------------|
Cdim/A    x0454x  |-8-8-8-8-8-8--7-7-7-6-6-6|-5-5-5-5-5-5--4-4-4-3-3-3-|
C#dim/A   x0565x  |-9-9-9-9-9-9--8-8-8-7-7-7|-6-6-6-6-6-6--5-5-5-4-4-4-|
Ddim/A    x0676x  |-8-8-8-8-8-8--7-7-7-6-6-6|-5-5-5-5-5-5--4-4-4-3-3-3-|
D#dim/A   x0787x  |-------------------------|--------------------------|
Edim/A    x0898x  |---I got a feeling-------|--------------------------|
these are overdubbed voices

These D shapes     [Edim/A    D#dim/A Ddim/A] [C#dim/A    Ddim/A D#dim/A]
are moved up &    |-------------------------|---------------------------
down. Usually     |-8-8-8-8-8-8--7-7-7-6-6-6|-5-5-5-5-5-5--6-6-6-7-7-7--
they correspond   |-9-9-9-9-9-9--8-8-8-7-7-7|-6-6-6-6-6-6--7-7-7-8-8-8--
to what Git 2     |-8-8-8-8-8-8--7-7-7-6-6-6|-5-5-5-5-5-5--6-6-6-7-7-7--
is playing but    |-------------------------|---------------------------
not always        |-------------------------|---------------------------
these two bars are repeated three times

Вверх

Ive Just Seen A Face

 First verse:
G                                                                    Em
Ive just seen a face I cant for get the time or place where we just met
C
Shes just the girl for me and I want all the world to see weve met
D     G
Na na na na na na


Second verse:
Had it been another day I might have looked the other way and
Id have never been aware but as it is Ill dream of her tonight
Da da da da da da

Chorus:
D                C                    G   C           G
Falling yes I am falling and she keeps calling me back again

Third verse:
I have never known the likes of this Ive been alone and I have
Missed things and kept out of sight but as it is Ill dream of her tonight
Da da da da da da

Repeat chorus.

Guitar solo played to verse chords.

Repeat chorus.

Repeat first verse.

Repeat chorus 3 times to end.



Intro, guitar #1 part is on 1st & 3rd strings, guitar #2 part on
4th, 5th, and 6th strings:

E --------2---2---2---5---5---5----9----9----9----14----14----14-
B ---------------------------------------------------------------
G ------2---2---2---6---6---6---11---11---11---14----14----14----
D ----------------------------------------------4--------2-------
A ---------------------------------------------------------------
E --5-4-2--------------------------------------------------------

E -----10----10----10----12----12----12----14----14----14----14----14----14-
B --------------------------------------------------------------------------
G --11----11----11----12----12----12----14----14----14----14----14----14----
D --------------------------------------------------------------------------
A ---5-----------------------------------------------------5--------4-------
E --------------------------------------------------------------------------

E -----13----13----13----11----11----11----------------------
B -----------------------------------------------------------
G --12----12----12----10----10----10-------------------------
D -----------------------------------------------------------
A ---2-------------------------------------------------------
E ---------------------5--------4-------5--------------------

Note:	Play with capo on 2nd fret, bringing song up to the key of A.

Вверх

I Want To Hold Your Hand
mp3

 G7      C             G7
Oh, yeh, I’ll tell you something,
Am                  E
I think you’ll undestand.
C                 G7
Then I’ll say that something,
Am                E
I wanna hold your hand,
F       G7        C     Am
I wanna hold your hand,
F       G7        C
I wanna hold your hand.

Oh, please, say to me
You’ll let me be your man.
And please, say to me
You’ll let me hold your hand.
Now let me hold your hand,
I wanna hold your hand.

Gm7        C7              F        Dm
And when I touch you I feel happy inside
Gm7         C7               F
It’s such a feeling that my love
G7     F      G7     F      G7
I can’t hide, I can’t hide, I can’t hide.

Yeh, you got that something
I think you’ll understand
That I’ll say that something,
I wanna hold your hand,
I wanna hold your hand,
I wanna hold your hand.

Вверх

I Will

C7   F        Dm         Gm      C7
Who knows how long I’ve loved you?
F     Dm        Am
You know I love you still.
F7      B      C7     Dm      F
Will I wait a lonely lifetime?
B       C7    F    Dm   Gm
If you want me to —I will.

For if I ever so you
I didn’t catch your name.
But it never really mattered
I will always feel the same.

B           Am   Dm       Dm7
Love you forever and forever,
Gm7            C7     F     F7
Love you with all my heart.
B            Am     Dm
Love you whenever we’re together,
G7                   C7
Love you when we’re apart.

And when at last I find you,
Your song will fill the air.
Sing it loud so I can hear you,
Make it easy to be near you.
For the things you do endear you to me
Ah, you know, I will.
I will.

Вверх

I Will (2 вариант)

       G        Em        Am         D
Who knows how long Ive loved you?
G      Em       Bm
You know I love you still.
G7     C      D      Em       Am  G
Will I wait a lonely lifetime?
C       D    G    Em  Am  D
If you want me to I will.

C          D     Em
Love you forever and forever,
C            D       G
Love you with all my heart.
C           D     Em
Love you whenever were together,
A                    D
Love you when were apart.


For if I ever saw you,
I didnt catch your name.
But it never really mattered;
I will always feel the same.

Love you forever and forever, etc.

And when at last I find you,
A song will fill the air.
Sing it loud so I can hear you.
Make it easy to endear you to me,
Ah, you know I will.

Вверх

Jealous Guy

G Em D
D Em
G     Em              D
I was dreaming of the past
D7                       Em
And my heart was beating fast
Em6                   D
I began to lose control
Em                   C
I began to lose control

CHORUS:
G        Dm           C      D6?
I didn't mean to hurt you
G         Dm              B
I'm sorry that I made you cry
G                Em        G6
I didn't mean to hurt you
C          G
I'm just a jealous guy


I was feeling insecure
You might not love me any more
I was shivering inside
I was shivering inside
(chorus)

I was trying to catch your eyes
Thought that you were trying to hide
I was swallowing my pain
I was swallowing my pain
(chorus)

Вверх

Julia

 D              Bm7            F#m7
Half of what I say is meaning less
D            Bm7              F#m7 A7
But I say it just to reach you Julia
D  Bm7  Am  Am7 B7          Gm7(9) Gm7
Julia,  Julia, ocean child calls me
D           Bm7          F#m7 A7
So I sing a song of love, Julia
D  Bm7 Am        Am7   B7          Gm7(9) Gm7
Julia, seashell eyes, windy smile calls me
D           Bm7          F#m7 A7 D
So I sing a song of love, Julia

BRIDGE:
C#m                          D
Her hair of floating sky is shimmering
Bm7       Bm6 F#m2     F#m F#m(D) F#m
Glimmering,   in the sun

D  Bm7 Am  Am7 B7           Gm7(9) Gm7
Julia, Julia, morning moon touch me
D           Bm7          F#m7 A7 D
So I sing a song of love, Julia
D             Bm7           F#m
When I cannot sing my heart
D          Bm7           F#m7 A7
I can only speak my mind, Julia
D   Bm7 Am       Am7   B7           Gm7(9) Gm7
Julia, sleeping sand, silent cloud touch me
D           Bm7          F#m7 A7
So I sing a song of love, Julia
D Bm7 Am Am7 B7 Gm7(9) Gm7
Mmm ...    Calls me
D           Bm7              A   D   A D  F#m7  A7 Dmaj7
So I sing a song of love for Julia, Julia, Julia

Вверх

Just Like Starting Over

define: F5+ base-fret 0 frets x x 3 2 2 1
define: D4 base-fret 0 frets x 0 0 2 1 3

c:Intro:
Our [F]life to[F5+]gether is so [Dm]precious to[F5+]gether.
We have [F]grown, [C7] we have [F]grown.
[C7]Although our [F]love is still [F5+]special, [Dm]
[F7]lets take a chance and fly a [Bb]way
some[Bbm]where a[F]lone.


{soc}
It's [F]been too long since we took the time.
No [F5+]one's to blame. I know time flies so [Gm]quickly.[C]
[Gm]But when I [C]see you darlin'[Am],
it's like we [D]both are falling in [Gm]love again.
It'll [C]be just like starting [F]over, [F5+]starting [F]over.
{eoc}


Every day we used to make it, love.
Why can't we be makin' love nice and easy?
It's time to spread our wings and fly;
don't let another day go by, my love.
It'll be just like starting over, starting over.

{c:Bridge}
[Cm7]why don't we take off al[Fm]one,   [Bb7]take a trip somewhere far, [Cm7]fa
r away?
[Cm]We'll be together all al[Fm]one again[Bb7], like we used to in the [Cm7]ear
ly days.
[C]Well, well, [Bb]darli[C]in'.

{c:repeat chorus}

{c:repeat intro, but at the end skip 'alone' and fade out on F5+ }

Вверх

Lady Madonna

 [E]Lady Ma[A]donna, [E]children at your [A]feet.
[E]Wonder how you [A]manage [E]to make[C]   [D]ends [E]meet.
Who finds the [A]money [E]when you pay the [A]rent.
[E]Did you think that [A]money [E]was [C]hea[D]ven [E]sent?

[Am]Friday night arrives without a [D]suitcase.
[G]Sunday morning creeping like a [Em]nun.
[Am]Mondays child has learned to tie his [D7]bootlace.
[G]See [Am6]how theyll [B7]run.

Lady Madonna, baby at your breast.
Wonder how you manage to feet the rest.
Lady Madonna, lying in your bed.
Listen to the music playing in your head.

Tuesday afternoon is never ending,
Wednesday morning papers didnt come.
Thursday night your stockings needed mending.
See how theyll run.

Lady Madonna, children at your feet.
Wonder how you manage to make ends meet.

Вверх

Let It Be
mp3

       C              G                 Am          F
When I find myself in times of trouble, Mother Mary comes to me
C                 G              F  C/e Dm C
Speaking words of wisdom, let it be
And in my hour of darkness, She is standing right in front of me
Speaking words of wisdom, Let it be

Am         G          F          C
Let it be, let it be, let it be, let it be
G                C              F  C/e Dm C
Whisper words of wisdom, let it be

And when the broken hearted people, Living in the world agree
There will be an answer, let it be
But though they may be parted,
There is still a chance that they may see

There will be an answer, let it be


CHORUS: Let it be, let it be, let it be, let it be

There will be an answer, let it be

Let it be, let it be, let it be, let it be

Whisper words of wisdom, let it be

LEAD

Let it be, let it be, let it be, let it be
Whisper words of wisdom, let it be

And when the night is cloudy,
There is still a light that shines on me
Shine on till tomorrow, let it be
I wake up to the sound of music, Mother Mary comes to me
Speaking words of wisdom, let it be

CHORUS

Вверх

Longer

   Intro
d:-----------0-----------0|-----------0-----------0|-----------0-----------0|
B:--------------1---------|--3-----------5---------|--0-----------1---------|
G:--------0-----------0---|--------0--------0--0---|--------0-----------0---|
D:-----0-----------2------|-----4------------------|-----0-----------2------|
G:--0-----------2---------|--4-----------5---------|--0-----------2---------|
D:------------------------|------------------------|------------------------|


d:-----------5------------|-----------0-----------0|--------------------0---|
B:--3--5--7-----------5---|--0-----------1---------|--3--5--3-----5---------|
G:-----------------5-----5|--------0-----------0---|-----------0-----0-----0|
D:--------------5---------|-----0-----------2------|------------------------|
G:--4--------5------------|--0-----------2---------|--4-----------5---------|
D:------------------------|------------------------|------------------------|


d:--0-----------------------|------------------------|
B:-----1-----1--------------|-----------0--1-----3---|
G:--------3-----------0H2--0|--------0--------0-----0|
D:-----------------0--------|-----0--------2-----4---|
G:--3-----------2-----------|--0---------------------|
D:--------------------------|------------------------|




Verse X3
d:--0--------0-----------0|-----------0-----------0|
B:--------------1---------|--3-----------5---------|
G:--------0-----------0---|--------0--------0--0---|
D:-----0-----------2------|-----4------------------|
G:--0-----------2---------|--4-----------5---------|
D:------------------------|------------------------|
Longer than...




d:--0-----------------------|------------------------|
B:-----1-----1--------------|-----------0--1-----3---|
G:--------3-----------0H2--0|--------0--------0-----0|
D:-----------------0--------|-----0--------2-----4---|
G:--3-----------2-----------|--0---------------------|
D:--------------------------|------------------------|
Ive been...


2nd time
d:--0-----------------------|--------------5-----5---|
B:-----1-----1--------------|-----------0------------|
G:--------3-----------0H2--0|--------0--------0-----0|
D:-----------------0--------|-----0------------------|
G:--3-----------2-----------|--0---------------------|
D:--------------------------|------------------------|
Ive been...



Chorus x3
d:-----------5------------|-----------3------------|--------0-----------0---|
B:------------------------|------------------------|------------------------|
G:--------5-----------5--7|--------3--------3------|-----5-----5-----5-----5|
D:-----7-----------5------|-----5--------------3---|--5-----------4---------|
G:--5-----------5---------|--3-----------3--------3|------------------------|
D:------------------------|------------------------|------------------------|
Ill        bring        fire in the winters      With lo-------ve on our



x3
d:--------0-----------0--|-----------0-----------0|-----------0-----------0|
B:-----------------------|--0-----------1---------|--3-----------5---------|
G:-----5-----5-----5----5|--------0-----------0---|--------0--------0--0---|
D:--3-----------4--------|-----0-----------2------|-----4------------------|
G:-----------------------|--0-----------2---------|--4-----------5---------|
D:-----------------------|------------------------|------------------------|
wings                      Through the years...



d:--0-----------------------|--------------0---------|
B:-----1-----1--------------|-----------0------------|
G:--------3-----------0H2--0|--------0--------0------|
D:-----------------0--------|-----0-----------------0|
G:--3-----------2-----------|--0-----------------2---|
D:--------------------------|------------------------|
Ill be...




d:--0-----------------------|--------------5-----5---|
B:-----1-----1--------------|-----------0------------|
G:--------3-----------0H2--0|--------0--------0-----0|
D:-----------------0--------|-----0------------------|
G:--3-----------2-----------|--0---------------------|
D:--------------------------|------------------------|
I am...


End
d:--0-----------------------|-------------5|
B:-----1-----1--------------|--------------|
G:--------3-----------0H2--0|--------2/4---|
D:-----------------0--------|-----0--------|
G:--3-----------2-----------|--0-----------|
D:--------------------------|--------------|

Вверх

Long Long Long

   Em           G        Em          D         A
E---------------------------------------------0-0-0-0-0-0--
B-----------------------------------------3---2-2-2-2-2-2--
G-----------h--------------------h-----2------2-2-2-2-2-2--
D-------h--0-2-------2-------h--0-2-0---------2-2-2-2-2-2--
A---h--0-2--------0------h--0-2---------------0-0-0-0-0-0--
E--0-3---------3--------0-3--------------------------------

Verses
(Capo 3rd Fret)

(Bb)G-320003
(Am)F#m-244222
(Gm)Em-022000
(F)D-xx0232
(C)A-x02220
(C7)A7-x02020

G      F#m  Em     D
Its been a long   long   long time

E-------------------2--
B-------------------3--
G----------h-----2-----
D------h--0-2-0--------
A--h--0-2--------------
E-0-3------------------

A                     Em         D   A
How could I ever have lost you

Em     D      A    A7
When I  loved you

2nd Verse

It took a long long long time

Now Im so happy I found you

How I love you

Bridge
G          D        A        Em
So many tears I was searching

G       D           A   Em  G  A  A
So many tears I was wasting oh oh

3rd verse
Now I can see you be you

how can I ever misplace you

how I want you

Coda
Em    D    A
oh I  love you

Em                D          Bb
you know that I need you

Em    D    A    A
Ooh I love you

Вверх

Lovely Rita

 Intro:

|-----------------|-----------------|-----------------|---------------|
|-4---4---4---0---|-2---2---2-------|-----------------|---------------|
|-4---4---4-------|-2---2---1-------|-------------1---|---------------|
|-4---4---4---1-2-|-2---2---2---2-2-|(2)----------1-2-|-4---4---4-----|
|---2---2---2-----|---0---0---0-4-0-|-2---2---2-2-2---|-6---6---6-----|
|-----------------|-----------------|-4-0-4-0-4-------|---7---7-------|


CHORUS

B           A                           B
Lovely Rita meter maid      Lovely Rita meter maid


E           D     A    E                  B
Lovely Rita meter maid nothing can come between us
C#m                 F#7             B
When it gets dark I tow your heart away

E             A             D                G
Standing by a parking meter  when I caught a glimpse of Rita
E                          B
filling in a ticket in her little white book

In a cap whe looked much older, and the bag across her shoulder
made her look a little like a military man

|E C#m F#m7 B7|

E           D     A    E                D
Lovely Rita meter maid may I enquire discreetly
C#m                  F#7               |B   A/B   |G#m/B   F#m/B   |
When are you free to take some tea with me?
E6/B        B7          |E    D A|E   B7   |E   F#7   |B7          |
Ah                Rita


CHORUS


Took her out and tried to win her, had a laugh, and over dinner
told her I would really like to see her again
Got the bill and Rita paid it, took her home, I nearly made it,
sitting on the sofa with a sister or two

Oh, lovely Rita, meter maid, where would I be without you?
Give us a wink and make me think of you


CHORUS

Вверх

Love Me Do
mp3

intro: (played on harmonica)

E|-12h13--11h12--9h10--------------|
B|---------------------8-8---8-8-8-|
G|---------------------------------|

E|-12h13--13--13--11h12--12--12--9h10------------------|
B|-------------------------------------8-8---8-8-8-----|
G|-----------------------------------------------------|

E|-12h13--11h12--9h10---------8-7----------------8-7/3-|
B|---------------------8-8--8-----8-8-8--8-8-8-8-------|
G|-----------------------------------------------------|

G             C
Love love me do
G             C
You know I love you
G            C
I?ll always be true
NC
So pleeeease  love me do

figure 1:
E|--12h13--11h12--9h10--------------|
B|----------------------8-8---8-8-8-|
G|----------------------------------|

E|-12h13--13--13--11h12--12--12--9h10--------------|
B|-------------------------------------8-8---8-8-8-|
G|-------------------------------------------------|

G             C
Love love me do
G             C
You know I love you
G            C
I?ll always be true
NC
So pleeeease  love me do

(play figure 1 again)

D                  C        G
Someone to love    Somebody new
E|-5---5---3--2-------3---1-0---------|
B|-----------------------------3------|
G|------------------------------------|

D                  C            G
Someone to love    Someone like you
E|-5---5---3--2-------3---1---0-------|
B|---------------------------------3--|
G|------------------------------------|

G             C
Love love me do
G             C
You know I love you
G            C
I?ll always be true
NC
So pleeeease  love me do

(play figure 1 again)

E|-5---5---3--2-------3---1-0-----------|
B|-----------------------------3--------|
G|--------------------------------------|

E|-5---5---3--2-------3---1---0---------|
B|---------------------------------3----|
G|--------------------------------------|

E|-3--3--3---3-3-3-3--8-7/3---8-8-8---8-|
B|--------------------------------------|
G|--------------------------------------|

G             C
Love love me do
G             C
You know I love you
G            C
I?ll always be true
NC
So pleeeease  love me do

(Fade out by playing intro a few times)

Chords used:

NC = no chord

Now that you have mastered that, try this if you have nothing
else to do

E|-8--10--12--10--8--10--10-----|
B|---------------------------10-|
G|------------------------------|

Вверх

Lucy In The Sky With Diamonds

A           A-7        D           D/F
I---------------------------I---------------------------I
I-----------17------17------I----------17-----15p14-----I
I-------14--------------14--I------14---------------14--I
I---14----------17----------I--16----------15-----------I
I---------------------------I---------------------------I
I---------------------------I---------------------------I
A         A-7       D         D/F
Picture yourself in a boat on a river
A       A-7        D        D/F --->  G
With tangerine trees and marmalade skies
A      A-7           D            D/F
Somebody calls you, you answer quite slowly
A             A-7      F#m ---> Dm ---> C
A girl with kaleidiscope eyes

Bb                      C                   F                  Bb
Cellophane  flowers  of  yellow and green    towering over your head
(slow bend)
eI-------------------------------------------I----------------------------I
bI-------------------------------------------I----------------------------I
gI--5^w-5^w-5^w-5^w-5^w-5^w---5^1/2--5^w-5^w-I-5^w-5^w-5^w-5^w-5^w-5^w-53I

C                          G                            D
Look for the girl with the sun  in  her  eyes and she?s gone

eI---------------------------------------------------------I--------------I
bI---------------------------------------------------------I--------------I
gI--5^w-5^w--5^w--5^w--5^w--5^w-5^w-5^w-5^w--5^w---5---4---I--2-----------I


CHORUS:

G           C        D          G           C        D
Lucy in the Sky with Diamonds.  Lucy in the Sky with Diamonds
G           C        D          D ---> A
Lucy in the Sky with Diamonds.  Ahhhhhhhhhhhh.



To make D/F chord:
D/F

I-----0----I
I-----3----I
I-----2----I
I-----3----I
I-----x----I
I-----x----I

Here is how I play it :  (not like the above)

|--------12-------12-----------12---------9-8-------|
|----10----------------9-----------9-----------9----|
|-9-----------12----------10-----------9------------|
|---------------------------------------------------|
|---------------------------------------------------|
|---------------------------------------------------|

Вверх

Magical Mystery Tour

 |D     |A     |

E
Roll up, roll up for the mystery tour

E
Roll up
G                    A
Roll up for the mystery tour    2X


Roll up - and thats an invitation
Roll up for the mystery tour
Roll up - to make a reservation
Roll up for the mystery tour


CHORUS

D                D/C          G/B                  Gm/Bb
The magical mystery tour is waiting to take you away
D/A                  A
waiting to take you away


Roll up, weve got everything you need
Roll up for the mystery tour
Roll up, satisfaction guaranteed
Roll up for the mystery tour


CHORUS

The magical mystery tour is hoping to take you away
Hoping to take you away

repeat verse 1


CHORUS  2X

The magical mystery tour is coming to take you away
Coming to take you away


The magical mystery tour is dying to take you away
Dying to take you away, take you today


G/B = x20003
Gm/Bb = 6x533x
F#m = xx4222

Вверх

Maxwells Silver Hammer

 D                  B7                  Em
Joan was quizzical, studied pataphysical science in the home,
A7                                   D            A
late night all alone with a test tube, oh, oh, oh, oh.
D              B7                   Em
Maxwell Edison, majoring in medicine, calls her on the phone.
A7                                D
Can I take you out to the pictures, Jo-o-o-o A an?
E7                            A7
But, as shes getting ready to go, a knock comes from the door:

D                                      E7
Bang! Bang! Maxwells silver hammer came down upon her head.
A7                                       Em        A7
Clang! Clang! Maxwells silver hammer made sure that she
D
was dead.

Back in school again, Maxwell plays
the fool again, teacher gets annoyed.
Wishing to avoid an unpleasant sce-e-e-ene.
She tells Max to stay when the class has gone away,
so he waits behind. Writing fifty times
"I must not be so-o-o-o.
But, when she turns her back on the boy,
he creeps up from behind:

P.C. thirtyone said "Weve caught a dirty one.", Maxwell stands
alone. Painting testimonial pictures, oh, oh, oh, oh.
Rose and Valerie, screaming from the gallery, say he must go
free. The judge does not agree. And he tells them so-o-o-o.
But as the words are leaving his lips, a noise came from behind

Вверх

Mean Mr. Mustard

 E                      E7
Mean Mr Mustard sleeps in the park

E
Shaves in the dark, trying to save paper
B                           B7 C7 Db7 D7
Sleeps in a hole in the road
D                               D7 Db7 C7 B7
Saving up to buy his new clothes
B
Keeps a ten bob note up his nose
E        C7 B7      E        C7 B7
Such a mean old man,       mean old man


E                    E7
His sister Pam works in a shop
E
She never stops shes a go-getter
B                                 B7 C7 Db7 D7
Takes him out to look at the Queen
D7 Db7 C7 B7
Only place that hes ever been

Always shouts out something obscene
E          C7 B7          E          C7 B7
Such a dirty old man,            dirty old man

B7 C7 Db7 D A E, D A E



[E] Mean Mr Mustard sleeps [E7] in the park

Shaves in the [E] dark, trying to save paper
[B] Sleeps in a hole in the road  B7 C7 Db7 D7
Saving up to buy his new clothes D7 Db7 C7 B7
Keeps a ten bob note up his nose
Such a [E] mean old [C7 B7] man, [E] mean old [C7 B7] man

[E] His sister Pam works [E7] in a  shop
She never [E] stops shes a go-getter
[B] Takes him out to look at the Queen  B7 C7 Db7 D7
Only place that hes ever been  D7 Db7 C7 B7
Always shouts out something obscene
Such a [E] dirty old [C7 B7] man, [E] dirty old [C7 B7]man

B7 C7 Db7 D A E, D A E

Вверх

Michelle

F         Bbm7      Eb6
Michelle, ma belle, these are words that
D0          C    G7-9   C
go together well, my Michelle
F         Bbm7      Eb6
Michelle, ma belle, sontles mots qui
D0        G7-9    C     G7-9         C
vont tres bien ensemble, tres bien ensemble

Fm                                  Ab7                  Db
I love you, I love you, I love you, that?s all I want to say
C7                     Fm
until I find a way
Fm     Fmmaj7 Fm7    Fm6       Bbm/F       C
I will say the only words I know that you?ll understand.

Chorus

I need you, I need you, I need you, I need to make you see
oh what you mean to me
until I do I?m hoping you will know what I mean

Chorus

I want you, I want you, I want you, I think you know by now
I?ll get to you somehow
until I do I?m telling you so you?ll understand

F         Bbm7     Eb6
Michelle, ma belle sont les mots qui
D0        G7-9    C      G7-9        C
vont tres bien ensemble, tres bien ensemble
F
I will say the only words I know that
Bbm7       C      Fm  C  F
you?ll understand, my Michelle

Вверх

Michelle (2 вариант)

;Прим. У меня аккорд B - си-бемоль!

;Ddim - уменьшенный септ с басом на 3-м ладу 4-я стр. - 3 лад;
;3-я стр. - 4 лад; 2-я - 3 лад; 1-я - 4 лад.

;G7b9 - 6 стр. - 3 лад; 5-я стр. - глушится;
;4-я - 0 лад; 3-я - 1 лад; 2-я - 0 лад; 1-я - 1 лад.

;Если вам тяжело взять такой аккорд - возьмите Hdim
;вместо G7b9 - они почти похожи.

;Ab11 - ТОЛЬКО ТАК: 6-я и 4-я струны на 4 ладу; 5-я  - глушится;
;3-я на 3 ладу; 2-я и 1-я на 2 ладу.
;Если вам тяжело взять такой аккорд - возьмите F#/C,
;только не акцентируете тонику этого аккорда.

;Sont les mots qui vont tres bien ensemble (фр.)
;на русском звучит как [сон ли мо ки вон тр?и бьен емсём?л]

;Проигрыш, похоже все знают - хроматический ход в басу от
;тоники минорного аккорда.
;В этой тональности проигрыш:

Fm/F - C+/E - Fm7/Eb - Fm6/D - Bm9/Db - C
.F.....Bm7
Michelle ma belle,
Eb...................Ddim.........C
These are words that go together well
G7b9...C7
My Michelle

.F.....Bm7
Michelle ma belle
Eb.................Ddim......G7b9...C
Sont les mots qui vont tres bien ensemble
G7...........C
Tres bien ensemble

Fm.............Ab11
I love you, I love you, I love you
....................Bm7/F
That?s all I want to say
C7...............Fm
...Until I find away
.......(________________проигрыш_________________)
I will say the only words I know that you understand


Michelle ma belle
Sont les mots qui vont tres bien ensemble
Tres bien ensemble

I need you, I need you, I need you
I need to make you see
Oh what you mean to me
Until I do I?m hoping you will know what I mean



I want you, I want you, I want you
I feel you know by now
I?ll get to you somehow
Until I do I?m telling you so you?ll understand

Michelle ma belle
Sont les mots qui vont tres bien ensemble
Tres bien ensemble

I will say the only words I know that you understand
My Michelle...

;В качестве коронной гадости песню можно завершить аккордом Fmaj7 ;о)

Вверх

Misery

 F                           G    C       Am
The world is trating me bad, misery.
C                F        C             Am
Im the kind of guy  who never used to cry.
F                    G    C      Am
The world is treating me bad, misery.
C                      Am
Ive lost her now for sure,
C                Am
I wont see her no more,
F          G     C
Its gonna be a drag, misery.
Am                             C
Ill remember all the little things weve done,
Am                                 C         G
Cant she see shell always be the only one,lonely one,
C                 F     C              Am
Send her back to mecos evry one can see,
F               G     C
Without her I will be in misery.
Am                            C
Ill remember all the little things weve done,
Am                                C         G
Shell remember and shell miss the only one,lonely one,
C                F     C              Am
Send her back to mecos evry one can see,
F               G     C
Without her I will be in misery.
Am     C      Am     C
Oo in misery. Oo in misery.

Вверх

Money

 Em          A    Em            A     Em          A   Em        A   Em

B           A(add2)            Am                B

Em                                               B
The best.... things    in life are     free...

Em
But  you  can  keep  em  for  the  birds  and     bees... Now give me

(Chorus)

A                                              Em                 A
(Backing):
Thats        What   I  want....                  Thats
Money                            Thats what I want,

Em                              B7                    A7
What   I     want....                Thats          what I want....
Thats what I want...................    Yeah.....

Em            A              Em B7
Thats   what I   want.....

Thats   what I   want...

(end of Chorus)

Em                                    B   Em
Your Lovein  give me a  thrill....        but your lovin dont pay

my bills.... Now give me (Repeat Chorus)


Em                                         B  Em
Money  dont get evrything its  true...      what it dont get  I cant

use.... Now give me   (Repeat Chorus then repeat this line & chorus again.
Then, instead of playing the Em and B7 chords at the end of chorus
start line below)

Em  B7                       Em                A     Em        A
(Backing):                           Thats          What I    Want...

Well.....   now give me  money...............

Em           A     Em         A           Em                   A
Thats       What  I    want...             thats

A  lotta money....          Oh.        Yeah... I  wanna be         free....

Em                    A         Em           A       Em
What   I       want....               Thats         What I want..

Oh........  lotta   money.

B7              A7                     Em          A
Thats    What I    want....

Thats what I  want..............     yeah.....            Thats what I

Em  B7                      Em              A
Thats

want......      Well....... now give me money................

Em        A               Em           A        Em       A
what I    want....             Thats           what I   want...

a lotta  money...              Wo.      yeah...You need

Em               A           Em                   A         Em         A
thats                what   I       want...             Thats

money.........                              (Oh  now) Gimme money

Em                         B7              A7
what I want....                  Thats    what  I want....

Thats what I want........          yeah......

Em              A               Em


thats  what I want.........

Вверх

Mother Natures Son

 D     Dsus4               D    Bm              E
Born a poor young country boy  Mother Natures son
A                                            D    Dm  G  D
All day long Im sitting singing songs for everyone

D   Dsus4              D      Bm             E
Sit beside a mountain stream  See her waters rise
A                                         D   Dm  G  D
Listen to the pretty sound of music as she flies

D           G           D
Do do do do do do do do do do do
D           G           D   Dmaj7  D7
do do do do do do do do do
G     Gm
Do do do do do do do do
D
Yeah yeah yeah

D      Dsus4            D      Bm             E
Find me in my field of grass  Mother Natures son
A                                          D  Dm  G  D
Swaying daisies sing a lazy song beneath the sun

D           G           D
Do do do do do do do do do do do
D           G           D   Dmaj7  D7
do do do do do do do do do
G     Gm
Do do do do do do do do
D
Yeah yeah yeah

D  Dsus4  D  Bm  E  A  D  Dm  G  D

D  Dm   G              D
Oh    Mother Natures Son


Intro:
E|--2-3-2-1-3-5-3-5-3-2--|
B|--3-----3-----0-----3--|
G|--2-----2-----0-----2--|
D|--0-----0-----0-----0--|
A|-----------------------|
E|-----------------------|


Middle Lead (play along with the "do do do" part):
E|----0-2-------0---2---3-2-0---2---2-------0---2---3-2-0---2--|
B|--3---3---3---3---3---0---0-3-3---3---3---3---3---0---0-3-3--|
G|--2-------2---------------------------2----------------------|
D|--0-----0---0---0---0-----------0---0---0---0---0------------|
A|-------------------------------------------------------------|
E|-------------------------------------------------------------|

E|---2-2---0-2-3-2-2-0-----|
B|---2-1-3-------------3---|
G|---2-2---------------0---|
D|---0-0---------------0---|
A|---------------------2---|
E|---------------------3---|


MOTHER NATURES SON- The Beatles

INTRO:
(slowly pluck these)           (strum a bit on each of
these)
E|---2---2---2------------------5--3--0--3p2--0h2-2h3-0h2-0h2--|
B|---3---3---3------------------3--3--3--3-3--3-3-3-3-3-3-3-3--|
G|-4---2---1--------------------2--2--2--2-2--2-2-2-2-2-2-2-2--|
D|------------------------------0--0--0--0-0--0-0-0-0-0-0-0-0--|
A|-------------------------------------------------------------|
E|-------------0-----------------------------------------------|
(let ring, then
slap guitar a bit)

D      G/D               D    Bm      D  E9  (hit low E string)
Born a poor young country boy  Mother Natures son
A  D/A   A  D/A   A      D/A     A       D/A   D   Dm  G/D  D
All day long Im sitting singing songs for everyone
D  Dm  G/D  D

D   G/D                D      Bm      D      E9   (riff)
Sit beside a mountain stream  See her waters rise
A  D/A A D/A   A     D/A       A   D/A      D   Dm  G/D  D
Listen to the pretty sound of music as she flies

G/D          D
Do do do do, do-yoo do do do
D            G/D          D  Dmaj7  D7
do do do do, do-yoo do do do
D7sus4  D7 G/D Gm/D  D
N

Find me in my field of grass  Mother Natures son  (riff)
Swaying daisies sing a lazy song beneath the sun

G/D          D
Do do do do, do-yoo do do do
D            G/D          D  Dmaj7  D7
do do do do, do-yoo do do do
D7sus4 D7    G/D Gm/D           D
Do do do do     do do do     yeah yeah yeah

(repeat verse chords while singing/humming the tune)

D  Dm   G/D            D7
Oh    Mother Natures Son

RIFF:
D|-------2--|
A|-----2----|
E|-0-4------|

G/D:    x x 0 0 0 3   E9:  x x 0 1 3 2
D7sus5: x x 0 2 1 3   D/A: x 0 4 2 3 0

Вверх

My Bonnie

G              C        G
My Bonnie lies over the ocean,
G              A7       D7sus4  D7
My Bonnie lies over the sea,
G              C        G
My Bonnie lies over the ocean.
G  C             D7        G
Oh bring back my Bonnie to me...
G                C     Am
Bring back, yeah bring back
D7                   G
Bring back my Bonnie to me, to me
G                C     Am
Bring back, yeah bring back
D7                      G
Bring back my Bonnie to me...

G              C        G
Well, My Bonnie lies over the ocean,
G              A7       D7sus4  D7
My Bonnie lies over the sea,
G              C        G
My Bonnie lies over the ocean.
G  C             D7        G
Oh bring back my Bonnie to me...

G                C     Am
Ahh bring back, yeah bring back
D7                      G
Bring back my Bonnie to me, to me
G                C     Am
Bring back, yeah bring back
D7                      G
Bring back my Bonnie to me...

Вверх

Nobody I Know

 [C]Nobody I know could [Dm7]love me [G7]more than [C]you.  [Dm7]        [G7]
[C]You can give me so much [Bb]love it se[G7]ems un[D7]true.  [G7]
[C]Listen to the bird who [Em]sings it in the tree,
[Am]and the when youve heard him, [Ab]see if you agree.
[C]Nobody I know could [Dm7]love you [G7]more than [C]me.   [Dm7]        [G7]

Everywhere I go the sun comes shining through.
Everyone I know is sure it shines on you.
Even in my dreams I look into your eyes,
suddenly it seems, Ive found a paradise.
[C]Everywhere I go the [Dm7]sun comes [G7]shining th[C]rough.  [D]
[G7]        [C]


[Am]Means so much to [E7]be a part of a [A]heart of a wonderful [C]one.
[Am]When other lovers are [C]gone, well live [Dm7]on,     [G7]
well live [C]on.   [Dm7]          [G7]

Вверх

No More Lonely Nights

    C                      Bb   C       Dm      Dm/C
I can wait another day, until I call you
Bb          C          F          A          Dm   Dm7      Bb      C
You?ve only got my heart on a string and everything a? flutter
Bb   C              Dm   Dm/C
But another lonely night might take forever
Bb          C            F        A           Dm      Dm7     Bb
We?ve only got each other to blame, it?s all the same to me love
C           F          Bb
Cause I know what I feel to be right
Bb           C     F             A7        Bb        C      F
No more lonely nights, never be another, no more lonely nights
Bb            C       F      Bb
You?re my guiding light, day or night I?m always there

May I never miss the thrill of being near you?
And if it takes a couple of years to turn your tears to laughter

I will do what I feel to be right
No more lonely nights, never be another, no more lonely nights
You?re my guiding light, day or night I?m always there

And I won?t go away until you tell me so
No I?ll never go away

Yes I know what I feel to be right
No more lonely nights, never be another, no more lonely nights
You?re my guiding light, day or night I?m always there

And I won?t go away until you tell me so
No I?ll never go away, no more lonely nights

Вверх

No Reply

[Dm]This happened once be[Dm]fore,
When I came to your d[G7]oor,
No rep[C]ly.
They said it wasn?t yo[Dm]u,
But I saw you peep thro[G7]]ugh your w[C]indow,
I saw the li[Am->Em]ght, I saw the l[Am->Em]ight,
I know that you saw m[Dm]e,
?cause I looked u[G7]p to  your fa[C]ce.

I tried to telephone,
They said you were not home,
That?s a lie,
?cause I know where you?ve been,
I saw you walk in your door,
I nearly died, I nearly died,
?cause you walked hand in hand
With another man in my place.

If I[G] were yo[C]u?d r[E]ealize that [A]I
Love you m[Dm]ore than a[G7]ny o[ther [C}guy,
And I[G7]?ll forg[C]ive the l[E]ies that [A]I
Heard bef[Dm]ore when you gave me no repl[C]y.

I?ve tried to telephone,
They said you were not home,
That?s a lie,
?cause I know where you?ve been,
I saw you walk in your door,
I nearly died, I nearly died,
?cause you walked hand in hand
With another man in my place.

No repl[Am->Em]y, no repl[Am->E]y.

Вверх

No Reply (2 вариант)

 n.c.                 C			       D7
This happened once before  When I came to your door
G6
No reply
C			    D7
They said it wasnt you  But I saw you peep through
G
Your window
Em       Bm
I saw the light
Cmaj7    Bm
I saw the light
Am7			     D7
I know that you saw me  Cause I looked up to see
G
Your face

-VERSE 2-
C			     D7
I tried to telephone  They said you were not home
G6
Thats a lie
C			D7
Cause I know where youve been  I saw you walk in
G
Your door
Em	Bm
I nearly died
Cmaj7    Bm
I nearly died
Am7		     D7
Cause you walked hand in hand  With another man
G
In my place
(Go to CODA after second time through VERSE 2)

-BRIDGE-
G        B7		 E
If I were you  Id realize  that I
Am	    C	      G
Love you more  than any other guy
G	      B7	 E
And Ill forgive  the lies  that I
Am	       C	    G
Heard before  when you gave me no reply

(Repeat VERSE 2)

CODA
Em    Bm
No reply
Cmaj7   G6add9
No reply

Вверх

Norwegian Wood

 		D            D(C#bass)        D   C        G   D
I once had a girl or should I say she once had me
D            D(C#bass)          D    C     G   D
She showed me her room isnt it good Norwegian wood

Dm                                         G
She asked me to stay and she told me to sit anywhere
Dm                                           Em   A
But I looked around and I noticed there wasnt a chair

D          D(C#bass)     D    C        G   D
I sat on a rug biding my time drinking her wine
D               D(C#bass)        D    C         G   D
We talked until two and then she said its time for bed

Dm                                               G
She told me she worked in the morning and started to laugh
Dm                                                Em   A
I told her I didnt and crawled off to sleep in the bath

D           D(C#bass)   D    C         G   D
And when I awoke I was alone this bird had flown
D          D(C#bass)     D    C    G    D
So I lit a fire isnt it good Norwegian wood

Вверх

Nowhere Man

 [C]Hes a real [G]nowhere man,
[F]Sitting in his [C]nowhere land,
[F]Making all his [Fm]nowhere plans for [F]nobo[C]dy.[Bb]     [F]    [C]

[C]Doesnt have a [G]point of view,
[F]Knows not where hes [G]going to,
[F]Isnt he a [Fm]bit like you and [F]me?[C]

Nowhere m[Em]an, please [F]listen,
You dont [Em]know what youre [F]missing,
Nowhere [Em]man, the [F]world is at your comman[G7]d.

Hes as blind as he can be,
Just sees what he wants to see,
Nowhere man can you see me at all?

Doesnt have a point of view,
Knows not where hes going to,
Isnt he a bit like you and me?

Nowhere man, dont worry,
Take your time, dont hurry,
Leave it all till somebody else lends you a hand.

Hes a real nowhere man,
Sitting in his nowhere land,
[F]Making all his [Fm]nowhere plans for [F]nobo[C]dy.
[F]Making all his [Fm]nowhere plans for [C]nobody.

Вверх

Nowhere Man (2 вариант)

 Intro :
-------


Hes a real nowhere man

Sitting in his nowhere land

Em             Gm                D
Making all his nowhere plans for nobody

D              A
Doesnt have a point of view

G                    D
Knows not where hes going to

Em           Gm             D
Isnt he a bit like you and me

F#m        G
Nowhere man please listen

F#m            G
You dont know what youre missing

F#m     Em7                     A7
Nowhere man the world is at your command


Solo:
-----

Same chords as for verse

Verse 2:
--------

Hes as blind as he can be
Just sees what he wants to see
Nowhere man can you see me at all


Nowhere man dont worry
Take your time dont hurry
Leave it all till somebody else lends you a hand

Вверх

Ob-La-Di Ob-La-Da

G                           D7
Desmond had a barrow in the market place,
D7                       G
Molly is the singer in a band.
G                             C
Desmond says to Molly, girl I like your face
G                D7               G
and Molly says this as she takes him by the hand.

Chorus:
G                             Em      G
Ob-la-di, ob-la-da, life goes on      bra.
G             D7        G
La la how the life goes on. (repeat)

G                              D7
Desmond takes a trolley to the jeweller?s store,
D7                         G
buys a twenty carat golden ring.
G                               C
Takes it back to Molly, waiting at the door
G               D7            G
and as he gives it to her she begins to sing.

{c: chorus}
C                                                 G
In a couple of years they have built a home sweet home
C
with a couple of kids running in the year
G           D7sus4 D7
of Desmond and Molly Jones.

G                       D7
Happy ever after in the market place,
D7                               G
Desmond lets the children lend a hand.
G                                C
Molly stays at home and does her pretty face
G                 D7                G
and in the evening she still sings it with the band.

{c: chorus}

C                                                 G
In a couple of years they have built a home sweet home
C
with a couple of kids running in the year
G           D7sus4 D7
of Desmond and Molly Jones.

G                       D7
Happy ever after in the market place,
D7                               G
Molly lets the children lend a hand.
G                                  C
Desmond stays at home and does his pretty face
G                 D7                G
and in the evening  he still sings it with the band.

{c: chorus}

Em
and if you wanna have fun
D7           G
take ob-la-di-bla-da

Вверх

Octopuss Garden

 	[intro]
B E
B A B
E C#m A B



E             C#m
Id like to be under the sea
A                              B
In an Octopuss Garden in the shade.
E              C#m
Hed let us in knows where weve been,
A                              B
In his Octopuss Garden in the shade.
C#m
Id ask my friends to come and see
A              B
An Octopuss Garden with me.
E              C#m
Id like to be under the sea
A               B             E
In an Octopuss Garden in the shade.


E                C#m
We would be warm below the storm
A                                  B
In our little hideaway beneath the waves.
E                C#m
Resting our head on the sea bed
A                             B
In an Octopuss Garden near a cave.
C#m
We would sing and dance around
A                  B
Because we know we cant be found.
E              C#m
Id like to be under the sea
A               B             E
In an Octopuss Garden in the shade.

[Solo]
A F#m D   E
A F#m D E A B

E              C#m
We would shout and swim about
A                              B
The coral that lies beneath the waves.
E                C#m
Oh, what joy for every girl and boy
A                                 B
Knowing theyre happy and theyre safe.
C#m
We would be so happy, you and me.
A                               B
No one there to tell us what to do.
E              C#m
Id like to be under the sea
A		B	    C#m
In an Octopuss Garden with you,
A		B	    C#m
In an Octopuss Garden with you,
A		B	    E  B  E
In an Octopuss Garden with you,

Вверх

Octopuss Garden (2 вариант)

 1.   [F]Id like to be [Dm]under the sea
In an [Bb]Octopuss [F]Garden in the s[C7]hade.
[F]Hed let us in, [Dm]knows where weve been,
In his [Bb]Octopuss [F]Garden in the s[C7]hade.

[Dm]Id ask my friends to come and see
[Bb]An Octopuss [C]Garden with me.
[F]Id like to be [Dm]under the sea
In an [Bb]Octopuss [C7]Garden in the s[F]hade.


2.   We would be warm below the storm
In our little hideaway beneath the waves.
Resting our head on the sea bed
In an Octopuss Garden near a cave.

We would sing and dance around
Because we know we cant be found.
Id like to be under the sea
In an Octopuss Garden in the shade.


3.   We would shout and swim about
The coral that lies beneath the waves.
Oh, what joy for every girl and boy
Knowing theyre happy and theyre safe.

We would be so happy, you and me.
No one there to tell us what to do.
Id like to be under the sea
In an Octopuss Garden with you.

Вверх

Oh Darling

        C               G
Oh! Darling, please believe me
Am                    F
Ill never do you no harm
Dm7             G7
Believe me when I tell you
Dm7       G7        C   F  C  G7
Ill never do you no harm

Oh! Darling, if you leave me
Ill never make it alone
Believe me when I beg you
Dont ever leave me alone

CHORUS:
G7         C                  G#
When you told me you didnt need me anymore
C                             C7
Well you know I nearly broke down and cried
D7
When you told me you didnt need me anymore

Well you know I nearly broke down and died

Oh! Darling, if you leave me
Ill never make it alone
Believe me when I tell you
Ill never do you no harm

CHORUS

Oh! Darling, please believe me
Ill never let you down
Believe me when I tell you
Ill never do you no harm

Вверх

One And One Is Two

 [D]One and one is two.   What am I to do,
[G]now that Im in [A]love with [D]you?
Im [D]hopin evryday Im gonna hear you say,
"You [G]really make my [A]wish come [D]true."


[D]   Can you feel when Im [G7]holding you near  (Oh [D]yeah)
All the things I [A7]do?  (Oh [D]yeah)
So, my love, am I [G7]making it clear?  (Oh [D]yeah)
One and [A7]one is [D]two.


[D]   Cant you see Ive loved [G7]you from the start?  (Oh [D]yeah)
Dont you love me [A7]too?  (Oh [D]yeah)
I love you but youre [G7]breakin my heart.  (Oh [D]yeah)
From [A7]wanting [D]you.


[D]   If you say that youre [G7]gonna be mine   (Oh [D]yeah)
Evrythings al[A7]right.  (Oh [D]yeah)
All the world would [G7]look so fine  (Oh [D]yeah)
If youll be [A7]mine to[D]night.

Вверх

Paperback Writer
mp3

 This is the intro bit:

e----------------v-----------------v
B----------------v-----------------v
G-------0--------v-----------------v
D---0-3-----0-3--v---------0---3---v
A----------------v---3-------------v
E-3--------------v-3-----3---------v


And the complete lyrics & chords:



Paperback writer...

G7
Dear Sir or Madam, will you read my book?
It took me years to write, will you take a look
Its based on a novel by a man named Lear
C
And I need a job so I want to be a paperback writer
G7
Paperback writer

G7
Its a dirty story of a dirty man
And his clinging wife doesnt understand
His son is working for the Daily Mail
C
Its a steady job but he wants to be a paperback writer
G7
Paperback writer

G7
Its a thousand pages, give or take a few
Ill be writing more in a week or two
I can make it longer if you like the style
C
I can change it round and I want to be a paperback writer
G7
Paperback writer

G7
If you really like it you can have the rights
It could make a milion for you overnight
If you must return it you can send it here
C
But I need a break and I want to be a paperback writer
G7
Paperback writer

G7
Paperback writer...

Вверх

Penny Lane
mp3

 Penny [G]Lane: there is a [Em]barber showing [Am7]photographs[D7]
Of every [G]head hes had the [Em]pleasure to [Gm7]know.
And all the [Em7-5]people that come and [Eb]go
Stop and [D7]say hello.[C]

Penny [F]Lane is in my ears and in [Am7]my ey[Bb]es.
[F]Wet beneath the blue subur[Am7]ban sk[Bb]ies,
I sit and [Cdim]meanwhile:[D7]

On the corner is a banker with a motor car.
The little children laugh at him behind his back.
And the banker never wears a "mac"
In the pouring rain.

Penny Lane is in my ears and in my eyes.
Wet beneath the blue suburban skies,
I sit and meanwhile:

Back in Penny Lane: there is a fireman with an hourglass.
And in his pocket is a portrait of the queen.
He likes to keep his fire engine clean,
Its a clean machine.

Penny Lane is in my ears and in my eyes.
Wet beneath the blue suburban skies,
I sit and meanwhile:

Back in Penny Lane: the barber shaves another customer.
We see the banker sitting, waiting for a trend.
And then the fireman rushes in
From the pouring rain.

Penny Lane is in my ears and in my eyes.
Wet beneath the blue suburban skies,
I sit and meanwhile back:

Penny [G]Lane is in my ears and in [Bm7]my e[C]yes.
[G]Wet beneath the blue subur[Bm7]ban sk[C]ies.

Вверх

Piggies

      F                 C7             F               C
Have you seen the little piggies crawling in the dirt
F               C7            Dm              G
And for all the little pigies life is getting worse
Dm7           G7      C7  Bb Cdim C
Always having dirt to play around in

F                 C7             F                       C
Have you seen the bigger piggies in their starched white shirts
F                 C7             Dm              G
You will find the bigger piggies stirring up the dirt
Dm7               G7        C7  Bb Cdim C
Always have clean shirts to play around in

Gm                  A7
BRIDGE:  In their styes with all their backing
Bb                   C
They dont care what goes on around
Gm                    A7
In their eyes theres something lacking
Bb                 C
what they needs a damn good whacking

F                 C7               F            C
Everywhere theres lots of piggies living piggy lives
F                C7             Dm              G
You can see them out for dinner with their piggy wives
Dm7                 G7         C7  Bb Cdim C
Clutching forks and knives to eat their bacon


From: Harlan L Thompson

PIGGIES- The Beatles

G                 D7             G               D
Have you seen the little piggies crawling in the dirt
G               D7            Em              A
And for all the little pigies life is getting worse
Em7           A7      D   Em7 Fdim D/F# G D G D
Always having dirt to play around in

G                 D7             G                       D
Have you seen the bigger piggies in their starched white shirts
G                 D7             Em              A
You will find the bigger piggies stirring up the dirt
Em7               A7        D    Em7 Fdim D/F# G D G B
Always have clean shirts to play around in


BRIDGE:
Am                  B7
In their styes with all their backing
C                    D
They dont care what goes on around
Am                    B7
In their eyes theres something lacking
C                  D                  D7
What they needs a damn good whacking!

G                 D7               G            D
Everywhere theres lots of piggies living piggy lives
G                D7             Em              A
You can see them out for dinner with their piggy wives
Em7                 A7         D   Em7  Fdim D/F#
Clutching forks and knives to eat their bacon

G D Gm D Gm D A7 D
Ab   Eb
One more time

Em7: 0 x 2 4 3 3   Fdim: x x 3 4 3 4   D/F#:  x x 3 1 2 5
Ab:  4 6 6 5 4 4   Eb:   6 6 8 8 8 6

Вверх

Please Please Me

C                                F   C
Last night I said these words to my girl:
F   C
I know you never even try girl.
F                   Dm
Come on, (come on), come on, (come on),
Am                  F
come on, (come on), come on, (come on),
C            F         G         C
Please please me, oh yeah, like I please you.
F    C
You dont need me to show the way, love.
F     C
Why do I always have to say, love?
F                   Dm
Come on, (come on), come on, (come on),
Am                  F
come on, (come on), come on, (come on),
C            F         G         C
Please please me, oh yeah, like I please you.
F
I dont want to sound complainin,
G7                                   C             F    C
But you know theres always rain in my heart.  (In my heart)
F
I do all the pleasin with you,
G7                           C       F
its so hard to reason with you, wo yeah,
G                C
Why do you make me blue?
F   C
Last night I said these words to my girl:
F   C
I know you never even try girl.
F                   Dm
Come on, (come on), come on, (come on),
Am                  F
come on, (come on), come on, (come on),
C            F         G         C       F
Please please me, oh yeah, like I please you, oh yeah,
G         C
like I please you,
F         G         C    Eb  D  G7  C
Oh yeah, like I please you.

Вверх

Please Please Me (2 вариант)

 Intro:
E
-|----------12--11--9--7--9--7--4----12--11--9--7--9--7--4--0------------
-|----------------------------------------------------------0------------
-|-----------9---8--6--4--6--4--1-----9---8--6--4--6--4--1--1------------
-|----------------------------------------------------------2------------
-|----------------------------------------------------------2------------
-|---/7--0---(bass only)------------------------------------0------------


Verse:
E                                  A  E     G  A  B
-|--0----0-----0--0----0----0-----0--0--0-----3--5--7--------------------
-|--5----4-----2--0----2----0--------2--0-----3--5--7--------------------
-|--------------------------------1--2--1-----4--6--8--------------------
-|--------------------------------------------5--7--9--------------------
-|--------------------------------------------5--7--9--------------------
-|--------------------------------------------3--5--7--------------------
Last night I said these words to my girl

E                              A   E
-|--0--0----0---0----0--0----0---0---0-----------------------------------
-|--5--4----2---0----2--0--------2---0-----------------------------------
-|---------------------------1---2---1-----------------------------------
-|---------------------------------------------------2--2----------------
-|---------------------------------------------------------2-------------
-|---------------------------------------------0--0----------------------
I know you ne - ver e - ven try girl

Chorus:
A              F#m             C#m              A
Come on         Come on         Come on         Come on
Come on         Come on         Come on         Come on

E           A       B         E  (repeat intro riff)
Please please me oh yeah like I please you.


Verse 2:
You dont need me to show the way girl
Why do I always have to say girl

Repeat chorus

Middle:
A
I dont want to sound complaining

B                                  E
But you know theres always rain in my heart

A
I do all the pleasing with you

B                           E
Its so hard to reason with you

A       B               E  (repeat intro riff)
Oh yeah, why do you make me blue?


Third verse same as the first,
Repeat chorus, but second line of chorus is repeated three times, then :

Ending chords are:

E   G   C   B   E

Вверх

Polytheme Pam

Intro: D A E D A E
D                     A        E
Well you should see Polytheme Pam
D                            A             E
Shes so good-looking but she looks like a man
A                           H       C             D        E
Well, you should see her in drag dressed in her polythene bag
C                   D         E
Yes you should see Polytheme Pam
C      D    E
Yeah Yeah Yeah
D A E D A E

Get a dose of her jackboots and kilt
Shes killer diller when shes dressed to the hilt
Shes the kind of a girl that makes "The News of The World"
Yes, you could say she was attractively built
Yeah Yeah Yeah

Вверх

Polytheme Pam (2 вариант)

 E                   D   A         E
Well, you should see Polythene Pam
D              A            E
Shes so good looking but she looks like a man
G                             B
Well, you should see her in drag, dressed in her polythene bag
C   D         E
Yes, you should see Polythene Pam.
C     D     E
Yeah, yeah, yeah

D/E  A  E (x 2)

Get a dose of her in jackboots and kilt
Shes killer diller when shes dressed to the hilt
Shes the kind of a girl that makes the _News of the World_
Yes, you could say she was attractively built.
Yeah, yeah, yeah

D/E  A  E (x2)
D  A  E  (x 9?)

[Geez, while Im at it, heres She Came in through the Bathroom Window.
Same source:] ltrics corrected by [email protected]

A                                 D
She came in through the bathroom window
A          F#m         D
protected by a silver spoon
A            F#m                 D
But now she sucks her thumb and wonders
D7                      A
by the banks of her own lagoon

(A)                Dm
Didnt anybody tell her?
A                   Dm
Didnt anybody see?
G7                       C
Sundays on the phone to Monday
G7                        C        (go to 2/4 for the C)
Tuesdays on the phone to me

She said shed always been a dancer
Worked in fifteen clubs a day
And though I thought I knew the answer
Well, I knew but I could not say

So I quit the police department
and got myself a steady job
And though she tried her best to help me
she could steal but she could not rob

Chorus

Вверх

P.S. I Love You

    C#7:  x43404   (B7 moved up two frets)



Em    C#7        D       Em      C#7     D
As I write this letter, send my love to you
Em      C#7      D      D      A7       D
Remember that Ill always be in love with you.

D                 Em                 D
Treasure these few words till were together,
A     A7       Bm   D  A7     Bb   Bb   C   D
Keep all my love forever. PS I love you, you you you.

G                D       G               D
As I write this letter, send my love to you
G                D      D     A7        D
Remember that Ill always be in love with you.

D               Em           D
Ill be coming home again to you love,

And till the day I do love, PS I love you, you you you.

Bb  C    D   DDDDD
I love you.

Вверх

Real Love

 G Aus
--0,0,5,4,4,3-
Intro
Em     B      Em      B

E                                    G#m
All my little plans and Schems
A                                     Gaus triad
lost like some forgotten dreams
A                                        F#m     B
Seems that all I really was doin
E     A     E      A
was waiting for you
E                                   G#m
Just like little girls and boys
C#m                                G Aus triad
Playing with their little  toys
A                                            F#m   B
seems like all we really were doin
E  A   E   A
was waitn for love

Chours
E     C#m   A          B
It’s real Love, it’s Real
E     C#m   A          B
It’s real Love, it’s Real

Intro Again

Once upon a time I’d know
Exactly where my life would go
Seems like all I really was doin
was waitn for love
only to be afraid

It’s real Love, it’s Real
It’s real Love, it’s Real

Guitar Interlude
F#m   C#  F#m   BAug  B


All I did I loved before
but in my heart I wanted more
Seems like a I really was doin
was wating for you

only to be alone
only to be alone

It’s real Love
repeat and fade

Вверх

Revolution

 Intro :

-|-5/7-7-7-7-7-7-7-7-7-7-7-7----5/7-7-7-7-7-7-7-7-7-7-7-7----
-|-5/7-7-7-7-7-7-7-7-7-7-7-7----5/7-7-7-7-7-7-7-7-7-7-7-7----
-|-----------------------------------------------------------
-|-----------------------------------------------------------
-|-----------------------------------------------------------
-|-----------------------------------------------------------

-|-5/7-7-7-7-7-7-7-7-7-7-7-7--------------------------12-----
-|-5/7-7-7-7-7-7-7-7-7-7-7-7----/10------10--12b(14)---------
-|-----------------------------------11----------------------
-|-----------------------------------------------------------
-|-----------------------------------------------------------
-|-----------------------------------------------------------



Verse/Chorus Form:

B                                    E
You say you want a revolution   well you know

B
We all want to change the world

B                                     E
You tell me that its evolution  well you know

F#
We all want to change the world

C#m                        F#
But when you talk about destruction

C#m                           A   B  G#   F#
Dont you know that you can count me out (in?)

B       E
Dont you know its gonna be   Alright

B       E
Dont you know its gonna be   Alright

B       E     F#7
Dont you know its gonna be   Alright


Guitar Details During Verses:
Guitar 1 plays a standard rock & roll shuffle:

B
-|-----------------------------------------------------------------
-|-----------------------------------------------------------------
-|-----------------------------------------------------------------
-|-----------------------------------------------------------------
-|-----9----9---9h11--9--9-----9h11--9--9--9h11--9--9--9h11--9--9--
-|-----7----7---7-----7--7-----7-----7--7--7-----7--7--7-----7--7--
You say you want   a  rev   o     lu    ti  on      well     you

E
-|-----------------------------------------------------------------
-|-----------------------------------------------------------------
-|-----------------------------------------------------------------
-|-----9----9---9h11--9--9-----9h11--9--9--9h11--9--9--9h11--9--9--
-|-----7----7---7-----7--7-----7-----7--7--7-----7--7--7-----7--7--
-|-----------------------------------------------------------------
know                                 we  all want to change the...

.. and so on, while Guitar 2 plays something along these lines:
B
-|-------------------------------------------------------
-|-------------4----4------4----4---4----4---4----4------
-|-------------4----4------4----4---4----4---4----4------
-|-------------4h6--4------4h6--4---4h6--4---4h6--4------
-|-------------------------------------------------------
-|-------------------------------------------------------
You say you want a rev o lu     tion      well you

E
-|-------------------------------------------------------
-|-----9-----9---9-----9---9-----9-------9-----9---------
-|-----9-----9---9-----9---9-----9-------9-----9---------
-|-----9h11--9---9h11--9---9h11--9-------9h11--9---------
-|-------------------------------------------------------
-|-------------------------------------------------------
know                  we all want to change the...


Guitar 2 plays this figure during the "chorus":

B             E
-|-------------------------------------------------------11--------------
-|-------------------4----4---------------------------9--12--12-----12---
-|-------------------4----4------------------9--9h11---------11h13--11---
-|-------------------4h6--4---------9--9h11------------------------------
-|-----------------------------------------------------------------------
-|-----------------------------------------------------------------------
... its gonna be         alright

.. repeated a few times, and then the following turnaround:

F#7
-|-----------------------------------------------------------
-|-----------------------------------------------------------
-|-----------------------------------------------------------
-|-------------2----------4----------2-----------------------
-|--------2h4--------2h4--------2h4-------------2------------
-|--2--2----------2----------2----------2--2h4---------------


Now, over the A B G# chords in the last verse, the lead guitar
plays a screaming figure based on this:

-|-----------14----
-|--14b(16)--------
-|-----------------
-|-----------------
-|-----------------
-|-----------------

And over the B & E chords the final time around, the lead guitar
is rapidly picking in rhythm with the words:

-|--9--------------
-|--12b(14)--------
-|-----------------
-|-----------------
-|-----------------
-|-----------------

.. up until the climactic end.

-|-------------10--9---
-|--b(10)9--7--10--9---
-|-------------11--10--
-|-------------12--11--
-|-------------12--11--
-|-------------10--9---

Вверх

Rocky Racoon

 Am7                                         D7
Now somewhere in the Black Mountain hills of Dakota
G7
there lived a young boy named Rocky Raccoon
And one day his woman ran off with another guy
C
Hit young Rocky in the eye
C/B
Rocky didnt like that,
Am7                           D7
he said Im gonna get that boy
G7
So one day he walked into town
C              C/B
and booked himself a room in a local saloon

Am7                    D7
Rocky Raccoon, checked into his room,
G7                    C    C/B
only to find Gideons Bible.
Am7             D7
Rocky had come, equipped with a gun,
G7                         C    C/B
to shoot off the legs of his rival
Am7                 D7
His rival it seems, had broken his dreams,
G7                         C   C/B
by stealing the girl of his fancy
Am7                      D7
Her name was McGill, And she called herself Lil,
G7                   C    C/B
but everyone knew her as Nancy

Now she and her man, who called himself Dan,
were in the next room at the hoedown
Rocky burst in and grinning a grin,
he said "Danny boy, this is a showdown."
But Daniel was hot, he drew first and shot,
and Rocky collapsed in the corner.

Am7 D7 G7 C C/B
(instrumental)

Now the doctor came in, stinking of gin,
and proceeded to lie on the table
He said, "Rocky, you met your match,"
but Rocky said, "Doc, its only a scratch
and Ill be better, Ill be better, Doc, as soon as I am able."

Now Rocky Raccoon, he fell back in his room
only to find Gideons Bible
Gideon checked out and he left it no doubt
to help with good Rockys revival.

Вверх

Rocky Racoon (2 вариант)

----3-3-3----3-3-3----3-3-3---2-2-2---1-1-1---1-1-1--
----1-1-1----1-1-1----1-1-1---1-1-1---0-0-0---0-0-0--
----2-2-2----2-2-2----2-2-2---2-2-2---0-0-0---0-0-0--
-------------------0--------0------------------------
--0--------0-----------------------------------------
-------------------------------------3-------3-------



-----0-0-0---0-0-0----
-----1-1-1---1-1-1----
-----0-0-0---0-0-0----        REPEAT
----------------------
--3--------2----------
----------------------


I GET BORED AFTER PLAYING ROCKY RACOON LIKE THIS, SO I OFTEN FINGER PICK
IT AS SHOWN BELOW:

----3-----3---3--3-----3------
-----1-----1---1--1-----1-----
------2-----2------2-----2----
-----------------0-----0------   etc.
----0-----0----0--------------
------------------------------


Now somewhere in the black mining hills out Dakota
There lived a young boy name of Rocky Raccoon
And one day his woman ran off with another guy
Hit young Rocky in the eye...
Rocky didn?t like that, he said, "I?m going to get that boy."
So one day he walked into town and booked himself a room in the local
saloon.

Rocky Racoon checked into his room
only to find Gideon?s bible

Rocky had come equipped with a gun
to shoot off the legs of his rival.

His rival, it seems, had broken his dreams
by stealing the girl of his fancy

Her name was McGill, and she called herself ?Lil?
But everyone knew her as Nancy.

Now she and her man (who called himself Dan)
Were in the next room at the hoedown

Rocky burst in, and grinning a grin,
he said, "Danny boy, this is a showdown."

But Daniel was hot. He drew first and shot
and Rocky collapsed in the corner.

Da-n-da da da-n-da da da...

Now the doctor came in stinking of gin
and proceeded to lie on the table.

He said, "Rocky, you met your match."
But Rocket said, "Doc, it?s only a scratch.
And I?ll be better... I?ll be better Doc as soon as I am able."

Now Rocky Raccoon, he fell back in his room
only to find Gideon?s bible.

Gideon checked out, and he left it no dobt
to help with good Rocky?s revival.

Oh yeah, yeah
Da-n-da da da-n-da da da...

Вверх

Sergeant Peppers Lonely Hearts Club Band

 intro:

E|-----------------------------------------------8-10----------- |
B|-----8----10-10-------8----10-10-------8--10------- 8-------- |
G|-9----------------9-----------------9-------------------7-9-7-|
D|---------------------------------------------------------------|
A|---------------------------------------------------------------|



verse:

It was 20 yrs ago today.... Sargent Pepper taught his band to play....

|-G7-G7-A7-A7-|-C7-C7-G7-G7-|-G7-G7-A7-A7-|-C7-C7-G7-G7-|-A7-A7-A7-A7-|

|-C7-C7-C7-C7-|


Little bass riff that Paul Throws in while George plays G7...


G|------------------------|-----------------------|
D|------------------------|-----------------------|
A|------2-2---3-3---4-5--|-------2-2--5-5--2-2--|
E|--3-3-------------------|--3-3------------------|



This part is played by horns in the song but I thought it might be cool to figure it out on my Guitar.  It sounds cool with a little distortion...



C7
E|-----------------------|----------------|--8----------------|
B|-----11-10-8----------|--10----10-10--|-----11-10-8-------|
G|--------------9----9---|-----10--------|--------------10-9-|
D|----------------10-----|----------------|-------------------|


E|----------------8--|-------------------------10--|
B|---------7-10------|------------7-----7-10------|
G|----7-9------------|---7-6-7-9-----9------------|
D|-------------------|-----------------------------|


Chorus:

Were Sergent Peppers Lonely Hearts Club Band...

|-G7-G7-Bb7-Bb7-|-C7-C7-G7-G7-|-C7-C7-C7-C7-|-G7-G7-G7-G7-|   etc...

Play The Verse Again After the chorus


Lyrics:

It was twenty years ago today, Sgt. Pepper taught the band to play
Theyve been going in and out of style But theyre guaranteed to raise a smile.
So may I introduce to you the act youve know for all these years,
Sgt. Peppers Lonely Hearts Club Band

Were Sgt. Peppers Lonely Hearts Club Band, We hope you will enjoy the show,
Were Sgt. Peppers Lonely Hearts Club Band, Sit back and let the evening go.

Sgt. Peppers Lonely, Sgt. Peppers Lonely, Sgt. Peppers Lonely Hearts Club Band.

Its wonderful to be here, its certainly a thrill.
Youre such a lovely audience, Wed like to take you home with us,
Wed love to take you home

I dont really want to stop the show, But I thought that you might like to know,
The singers going to sing a song, And he wants you all to sing along.
So let me introduce to you The one and only Billy Shears
And Sgt. Peppers Lonely Hearts Club Band.

Вверх

Sexy Sadie

 CHORDS:
G 3-5-5-4-3-3          F# 2-4-4-3-2-2           Am 5-7-7-5-5-5
C X-3-2-0-1-0           F 1-3-3-2-1-1           Bm 7-9-9-7-7-7
D 0-0-0-3-2-3         A#m X-2-4-4-3-4           C2 8-10-10-9-8-8

Play the little arpeggio with chord:

A#m
E-2----------2-------
B-3--------3---3-----
G-4------4-------4---
D-4----4-----------4-
A-2------------------
E--------------------


INTRO: G C D G F# F D

G     F#    A#m
Sexy Sadie    what have you done

C           D             G    F#
You made a  fool of everyone

C           D             G    F#
You made a  fool of everyone

F       D
Sexy Sadie ooh what have you done


Sexy Sadie you broke the rules
You layed it down for all to see
You layed it down for all to see
Sexy Sadie oooh you broke the rules


G                  Am                      Bm     C2
One sunny day the world was waiting for a lover

G           Am                  Bm     C2
She came along to turn on everyone

Am              G#               G
Sexy Sadie the greatest of them all


Sexy Sadie how did you know
The world was waiting just for you
The world was waiting just for you
Sexy Sadie oooh how did you know

Sexy Sadie youll get yours yet
However big you think you are
However big you think you are
Sexy Sadie oooh youll get yours yet

We gave her everything we owned just to sit at her table
Just a smile would lighten everything
Sexy Sadie shes the latest and the greatest of them all

G F# A#m C D G F#

C           D            G    F#
She made a fool of everyone

F           D
Sexy Sadie

G F# A#m C D G F#

C        D                 G    F#
However big you think you are

F           D
Sexy Sadie

G F# A#m C D G F# F D ... (and fade)

Вверх

She Loves You
mp3

     [C]She [Am]loves you, yeah, yeah, yeah. She [D7]loves you, yeah, yeah, yeah.
She [F]loves you, yeah, yeah, yeah, [C]yeah.

You [C]think youve lost your [Am]love when I [Em]saw her yester[G7]day.
Its [C]you shes thinking [Am]of and she [Em]told me what to [G7]say.
She says she [Am]loves you and you know that cant be bad.
Yes she [F]loves you and you [Dm]know you should be [G7]glad. Oooh.

She said you were to know that she almost lost her mind.
And now she says she knows youre not the hurting kind.
She says she loves you and you know that cant be bad.
Yes she loves you and you know you should be glad. Oooh.

She [Am]loves you, yeah, yeah, yeah. She [D7]loves you, yeah, yeah, yeah.
and with a [F]love like that, you [G7]know you should be [C]glad.

And now its up to you, I think its only fair.
If I should hurt you too, apologize to her.
Because she loves you, and you know that cant be bad.
Yes she loves you and you know you should be glad. Oooh.

{c:repeat Intro}

{new_song}
{title:Sie liebt Dich}
{subtitle:Lennon/McCartney/L.Montague/J.Nicolas}

{c:German words for She Loves You as sung by The Beatles in 1962}

Intro: Sie liebt dich, yeah, yeah, yeah...

Du glaubst Sie liebt nur mich, gestern hab ich sie gesehn.
Sie denkt ja nur an Dich und Du solltest zu ihr gehn.
O ja, sie liebt Dich, schvner kann es gar nicht sein.
ja, sie liebt Dich, und da solltest Du Dich freuen. Oooh.

Du hast ihr wehgetan und sie wu_te nicht warum.
Warst nicht schuld daran und drehtest Dich nicht um.
Oh ja, sie liebt Dich...

Sie liebt Dich, yeah, yeah, yeah...
denn mit Dir allein kann sie nur gl|cklich sein.

Du mu_t jetzt zu ihr gehn; entschuldig Dich bei ihr.
Das wird sie verstehn und dann verzeiht sie Dir.
Oh ja, sie liebt Dich...

Вверх

She Said She Said

 h = hammer on
p = pull off
b = bend
r = release bend


Intro riff :
------------

E-------------------------
B------2h3--2h3--2h3-5----
G--2h4-----------------2--
D-------------------------
A-------------------------
E-----------------


What I have for the chords is :


A         G    D                    A               G     D
She said           I know what its like  to  be  dead        I know what it ...


Basically its these three chords for nearly the whole song, apart from :

Em        A7              D           A7             D
When I was a boy          ething was right           ething was right


And thats it.

As for the instruments : one guitar plays the chords, with a cleanish sound

The second electric plays lead parts which sometimes echo the tune, but this
guitar also plays the riff that comes after  making me feel like Ive never
been born  :

E---------------------------------
B------------------------------
G---4b6r4-2--4--0-----0---2---------
D-------------------2---2--------
A-------------------------------
E-------------------------------

Вверх

Something
mp3

                                          Something in the way she moves
G|--------------------------------|----------5-5-5-5---------------|
D|--------------------------------|------------------------2--3/5--|
A|----------------6-------5-------|3-------------------------------|
E|1-------------------------------|--------------------------------|
^       ^       ^       ^        ^       ^       ^       ^

Attracts me like no other lover
|--------------------------------|----5-5-5-5-5-------------------|
|5~~~--------5h7-5---------------|----------------------------2---|
|----------------------------5---|3-------------------3---5-------|
|--------------------------------|--------------------------------|
^       ^       ^       ^        ^       ^       ^       ^

Something in the way she
|--------------------------------|------------7-7-7---------------|
|3-----------3h5-3-------2-------|------------------------4---9p7-|
|--------------------------------|5-------------------5-----------|
|--------------------------------|--------------------------------|
^       ^       ^       ^        ^       ^       ^       ^

woos me                        I dont want to leave her now
|--------------------------------|-------------7h9-10-9-7---------|
|5-5-5h7-7-7-7/9-9~~~------------|7-----------------------10-9-7--|
|--------------------------------|--------------------------------|
|--------------------------------|--------------------------------|
^       ^       ^       ^        ^       ^       ^       ^

You know I believe and how
|--------------------------------|--------------------------------|
|5-----------6-7-----------------|--------------------------------|
|----------------5-----------7---|8-------8p7-5---6-------5-------|
|--------------------------------|--------------8-----------------|
^       ^       ^       ^        ^       ^       ^       ^

Somewhere in her smile she knows
|----5---5-5-5-5-5---5-----------|--------------------------------|
|------------------------2--3/5--|5~~~--------5h7-5---------------|
|3-------------------------------|------------------------7---5---|
|--------------------------------|--------------------------------|
^       ^       ^       ^        ^       ^       ^       ^

That I dont need no other lover
|----5-5-5---5-5-5---------------|--------------------------------|
|----------------------------2---|3-----------------------2-------|
|3-------------------3---5-------|--------------------------------|
|--------------------------------|--------1-1-1---1---------------|
^       ^       ^       ^        ^       ^       ^       ^

Something in her style that shows me
|--------------------------------|--------------------------------|
|------------4---7---------------|5-5-5-5-5h7-7-7-7-7/9--9--------|
|5-----------------------5-------|--------------------------------|
|--------------------------------|--------------------------------|
^       ^       ^       ^        ^       ^         ^       ^

Dont want to leave her now    You know I believe and how
|-------------7h9-10-9-7---------|--------------------------------|
|7---7-------------------10-9-7--|5-----5---6-7-------------------|
|--------------------------------|---5------------5-----------7---|
|--------------------------------|--------------------------------|
^       ^       ^       ^        ^       ^       ^       ^


|--------------------------------|--------6---9---6-6-6-6-6-7-8-9-|
|--------------------------------|7-7-7-7---7---7-----------------|
|8---------------6-------5-------|--------------------------------|
|--------------------------------|--------------------------------|
^       ^       ^       ^        ^       ^       ^       ^

Youre asking me will my love grow                      I dont
|--------9---9-----------9---9---|--------9---9-----------9---9---|
|7---7-----------6---6-----------|--------------------------------|
|--------------------------------|9---9-----------7---7-----------|
|--------------------------------|--------------------------------|
^       ^       ^       ^        ^       ^       ^       ^

know            I dont know
|--------------------------------|--------------------------------|
|--------4---4---5---5---5---5---|--------------------------------|
|5---5---------------------------|--------------------------------|
|--------------------------------|5----4-----3-----2----1----0----|
^       ^       ^       ^

You stick around now it may show                      I dont
|--------------------------------|--------------------------------|
|--------2---2-----------2h4-2---|--------2---2-----------2---2---|
|--------------------------------|--------------------------------|
|5---5-----------4---4-----------|2---2-----------0---0-----------|
^       ^       ^       ^        ^       ^       ^       ^


know            I dont know
|--------------------------------|5----4--------------------------|
|--------4---4---5---5---5---5---|-----------7-----5--------------|
|5---5---------------------------|----------------------7----5----|
|--------------------------------|--------------------------------|
^       ^       ^       ^

Guitar solo
|----------5-5-5-5---5-----------|--------------------------------|
|------------------------2---3/5-|5-----------5h7-5---------------|
|3-------------------------------|----------------------------7p5-|
|--------------------------------|--------------------------------|
^       ^       ^       ^        ^       ^       ^       ^


|---5--5-5-5-5-5-5---------------|--------------------------------|
|--------------------------------|------3-3-3-3-----------2-------|
|3-------------------3---1p0-----|----------------------------3---|
|----------------------------31-|1-------------------------------|
^       ^       ^       ^        ^       ^       ^       ^


|--------------------------------|--------------------------------|
|--------------4-7-----------4---|5-5-5-5-5h7-7-7-7-7/9~~~--------|
|5-----------5-------5---7-------|--------------------------------|
|--------------------------------|--------------------------------|
^       ^       ^       ^        ^       ^         ^       ^


|-------------7h9-10-9-7---------|-----------------------------7-|
|7---7-------------------10-9-7-9|7----5-----6-7-----------------|
|--------------------------------|--------7-5-----5---------------|
|--------------------------------|--------------------------------|
^       ^       ^       ^        ^       ^       ^       ^

Something in the way she knows
|--------------------------------|--------------------5-5-5-5-5---|
|--------------------------------|-------------------------------5|
|8-------7p5-----6-------5-------|3h5p3-------3---3---------------|
|------------8-------------------|--------------------------------|
^       ^       ^       ^        ^       ^       ^       ^

And all I got   to do is
|----------------5---------------|----5-5-5-5-5-5-5---------------|
|5h7p5---5h7p5-------5h7-5-------|--------------------2---5---2---|
|----------------------------75-|3-------------------------------|
|--------------------------------|--------------------------------|
^       ^       ^       ^        ^       ^       ^       ^

think of her                     Something in the things she
|--------------------------------|------------------7-7---7-------|
|3-----------------------2-------|--------------4-7-----------4---|
|--------------------------------|5-----------5-------------------|
|------------1-1-1---------------|--------------------------------|
^       ^       ^       ^        ^       ^       ^       ^

shows me                         Dont want to leave her now
|--------------------------------|-------------7h9-10-9-7---------|
|5---5-5-5h7-7-7-7/9-------------|7---7-------------------10-9-7-9|
|--------------------------------|--------------------------------|
|--------------------------------|--------------------------------|
^       ^       ^       ^        ^       ^       ^       ^

You know I believe and how
|--------------------------------|--------------------------------|
|7------------------------------|--------------------------------|
|---5--0---3--5--5-----------7---|8---------------6-------5-------|
|--------------------------------|--------------------------------|
^       ^       ^       ^        ^       ^       ^       ^


|------------6-6-6-7-7-7-8-8-9-9-|9/10-10-10-10p9-7--8----7-------|
|7-7-7-7-7-7---------------------|-----------------10-------------|
|--------------------------------|--------------------------------|
|--------------------------------|--------------------------------|
^       ^       ^       ^        ^       ^          ^    ^


|--------------------------------|
|--------------------------------|
|5p3-----------------------------|
|--------------------------------|
^       ^       ^       ^

Вверх

Strawberry Fields Forever

      [G]Let me take you down cause Im going [Dm7]to Strawberry Fields.
[E7-5]Nothing is real.
And [C]nothing to [D]get [E]hung about.
[Am7]Stawberry Fields [D]fore[G]ver.

[D]Living is easy with [D7]eyes close[B7]d,
[Em]Misunderstanding all you [C]see.
[Am7]Its getting [D7]hard to be some[G]one but it all works [Em]out,
[Am7]It doesnt [D7]matter much to [C]me.[G]   [C]

Let me take you down cause Im going to Strawberry Fields.
Nothing is real.
And nothing to get hung about.
Stawberry Fields forever.

No one I think is in my tree,
I mean it must be high or low.
That is, you know you cant tune in but its all right,
That is, I think its not too bad.

Let me take you down cause Im going to Strawberry Fields.
Nothing is real.
And nothing to get hung about.
Stawberry Fields forever.

Always know sometimes think its me,
But you know I know and its a dream.
I think I know of thee, ah, yes but its all wrong,
That is, I think I disagree.

Let me take you down cause Im going to Strawberry Fields.
Nothing is real.
And nothing to get hung about.
Stawberry Fields forever.

Вверх

Strawberry Fields Forever (2 вариант)

 E -7-7-7-7-7-7-5/4---2-5----0-4-2-0-----
B --------------------------------------
G --------------------------------------
D -------------4/2--------------0-------
A -7---6---5-------4------2-------4-0---
E --------------------------------------

(A)                Em7
Let me take you down, cos Im going to Strawberry Fields
F#m7                   D            F#
Nothing is real, and nothing to get hung about
Dmaj7              A
Strawberry Fields forever
E(IV)     G#m       E7(II)  Bm7 C#7 F#m        F#m7             Dmaj7
Living is easy with eyes closed,      misunderstanding all you see
D            E7           A                     F#m
Its getting hard to be someone but it all works out
D           E            D   A
It doesnt matter much to me

CHORUS:
(n.c.)                             Em7
Let me take you down, cos Im going to Strawberry Fields
C#dim                  D            F#
Nothing is real, and nothing to get hung about
Dmaj7                A   riff 1
Strawberry Fields forever

E(IV)    G#m     E7(II)  Bm7 C#m7 F#m          F#m7            Dmaj7
riff 2
No one I think is in my tree,        I mean it must be high or low
D            E7                  A                F#m  E
That is, you cant you know tune in but its all right
D            E                D  A
That is, I think its not too bad ...CHORUS

E(IV)  G#m       E7(II)           Bm7 C#m7 F#m
Always know, sometimes think its me
F#m7                Dmaj7  riff 2
But you know I know when its a dream
D          E7             A                  F#m  E
I think a "no" will be a "yes", but its all wrong
D           E          D   A
That is, I think I disagree ...CHORUS (without riff 1)

F#m   Dmaj7              A
Strawberry Fields forever
Dmaj7        E      F#m
Strawberry Fields forever


RIFF 1:               RIFF 2:
E -10-9------------------ ----------
B ------10-8-5----------- ----------
G -------------7p6------- ----------
D -----------------7----- -4-2-0----
A ----------------------- ----------
E ----------------------- ----------


Em7:   0 2 2 0 3 0   F#m7: 2 4 2 2 2 2  Dmaj7:   x x 0 2 2 2
E(IV): x x 6 4 5 4   G#m:  4 6 6 4 4 4  E7 (II): x x 2 4 3 4
Bm7:   2 2 4 2 3 2   C#7:  x 4 3 4 2 x  C#dim:   x x 1 2 1 2

Вверх

Taxman

 Verse:
D7                         D7#9  D7
Let me tell you how it will be
D7                              D7#9  D7
Theres one for you nineteen for me
C7              G7#9    D7
Cos Im the taxman   Yeah Im the taxman


Verse:
Should five percent appear too small
Be thankful I dont take it all
Cos Im the taxman   Yeah Im the taxman


Middle:
D
If you drive a truck  Ill tax the street
C
If you try to fix it  Ill tax your seat
D
If you get too cold  Ill tax the heat
C                D
If you take a walk  Ill tax your feet   TAXMAN!


Guitar Solo:
-|---------------------------------------------------10----------------
-|--------------------------------6--8--b(9)8--6-----------------------
-|-----7-----7-----7-----7-----7------------------7--------------------
-|--0-----0-----0-----0-----0------------------------------------------
-|---------------------------------------------------------------------
-|---------------------------------------------------------------------

-|---------------------------------------------------------------------
-|-----9p8--9p8--6-----------------------------------------------------
-|--7---------------7--7--5h7p5--6--4h6p4--5--2h4p2--------------------
-|---------------------------------------------------------------------
-|---------------------------------------------------------------------
-|---------------------------------------------------------------------

-|------------------------------------------------------------10-------
-|-----------------------8--6-----6-----6-----6--b(9)8--6--------------
-|--2--4--5--7-----7-----------7-----7-----7---------------7-----------
-|--------------0-----0------------------------------------------------
-|---------------------------------------------------------------------
-|---------------------------------------------------------------------

C               G7#9    D
Cos Im the taxman   Yeah Im the taxman


Verse:
Dont ask me what I want it for  (ah ah, Mr. Wilson)
If you dont want to pay some more  (ah ah, Mr. Heath)
Cos Im the taxman                 Yeah      Im the taxman
-|--------------------------------------------------------------------------
-|--------------------------------------------------------------------------
-|-------------------5---------3--5-----5---------3--5----------------------
-|----------------------3--h5--------------3--h5-----------5---------3b(4)--
-|----------------3------------------3------------------------3--h5---------
-|------------------------------------------------------3-------------------


Verse:
Now my advice for those who die  (TAXMAN!)
Declare the pennies on your eyes  (TAXMAN!)
Cos Im the taxman   Yeah Im the taxman

And youre working     for no one    but me
F                           D7
-|--------------------------------------------------------------
-|--------------/6-----/6-----/6-----/6-------------------------
-|------------------5------5------5------5------7---------5--7--  (repeat
-|-------------------------------------------------5--h7--------   guitar
-|-------------------------------------------5------------------    solo)
-|--------------------------------------------------------------



-------------------------------------------------------------------------
Miscellaneous info:

C7   = (-3231-)
D7   = (-5453-)
D7#9 = (-5456-) or (----11)
G7#9 = (35-466)

Riff to repeat over first two
lines of third verse
-|------------------------------
-|------------------------------
-|-----7---------5--7-----------
-|--------5--h7-----------------
-|--5---------------------------
-|------------------------------

Riff to repeat over first two
lines of fourth verse
-|------------------------------
-|------------------8-----------
-|-----7---------5--------------
-|--------5--h7-----------------
-|--5---------------------------
-|------------------------------

Вверх

Tell Me Why

 G7       C    Am            Dm7              G7    Dm7      C    Am  Dm7
Tell me why - -  you cried,     and why you lied - -    to me.

G7       C    Am            Dm7              G7    Dm7     C     G7
Tell me why - -  you cried,     and why you lied - -    to me.


C                    Am            Dm7                  G7
Well I gave you everything I had, but you left me sitting on my own.

C                      Am         Dm7                     G7
Did you have to treat me oh so bad, all I do is hang my head and moan.

C    Am            Dm7              G7    Dm7      C    Am  Dm7
Tell me why - -  you cried,     and why you lied - -    to me.

G7       C    Am            Dm7              G7    Dm7     C      G7
Tell me why - -  you cried,     and why you lied - -    to me.


C                           Am            Dm7                G7
If its something that Ive said or done, tell me what and Ill apologize.

C                      Am          Dm7                     G7
If you dont I really cant go on, holding back these tears in my eyes.

C    Am            Dm7              G7    Dm7      C    Am  Dm7
Tell me why - -  you cried,     and why you lied - -    to me.

G7       C    Am            Dm7              G7    Dm7     C     C7
Tell me why - -  you cried,     and why you lied - -    to me.


F7                                    G7
Well I beg you on my bended knees, if youll only listen to my pleas.

Am
Is there anything I can do,

Dm                       G7               C       G7
Cause I really cant stand it Im so in love with you.


C    Am            Dm7              G7    Dm7      C    Am  Dm7
Tell me why - -  you cried,     and why you lied - -    to me.

G7       C    Am            Dm7              G7           Am   Ab  G7  C
Tell me why - -  you cried,     and why you lied - -  to  me.

Вверх

Thank You Girl
mp3

 D   D7
D   D7
Oh, oh,

A      E       A
you be good to me
E           Amaj7     E        A
You make me glad when I was blue
A     E     A
And eternally
E           Amaj7 E          A
Ill always be in love with you.
D         A7
And all I gotta do
D               E
Is thank you girl, thank you girl.


A     E        A
I can tell the world
E        Amaj7 E         A
A thing or two about our love
A    E         A
And, oh little girl,
E      Amaj7      E        A
Only a fool would doubt our love.
D         A7
And all I gotta do
D               E
Is thank you girl, thank you girl.

D
Thank you girl for
A
Loving me the
E
Way that you do
E
Way that you do
E7
Thats the kind of
D7
Love that seems too
A7
Good to be true.
D         A7
And all I gotta do
D               E
Is thank you girl, thank you girl.


D     D7

D   D7
Oh, oh,

A      E       A
you be good to me
E           Amaj7     E        A
You make me glad when I was blue
A     E     A
And eternally
E           Amaj7 E          A
Ill always be in love with you.
D         A7
And all I gotta do
D               E
Is thank you girl, thank you girl.

D   D7

D   D7  A  D  A  D
Oh, oh, oh.
D   D7  A  D  A  D
Oh, oh, oh.
D   D7  A  D  A  D  A
Oh, oh, oh.

Вверх

Thats Alright Mama

[A]Well, thats alright, Mama.  Thats alright with you.
Yeah, thats alright now, Mama.  Just [A7]anyway you do.
Thats al[D7]right,  thats alright,  thats a[E7]lright my Mama, anyway you [A]do.

Well Mama, she done told me.  Poppa done told me too.
Said, "Son, that gal youre foolin with - she aint no gal for you".
Thats alright,  thats alright,  thats alright my Mama, anyway you do.
Woh.


Well, Im leavin town, baby.  Im leavin town for sure.
Then you wont be bothered with me hangin round your door.
Thats alright,  thats alright, yeah thats alright my Mama, anyway you do.

Well, thats alright, Mama.  Yeah, thats alright with you.
Thats alright now, Mama.  Just anyway you do.
Thats alright,  thats alright,  thats alright my Mama, anyway you do.
Ooh, ah-hoo.


[A]Ya da di dididi,  ya da di dididi,  ya da di dididi,
I need your [D7]lovin.

Thats alright,  thats [E7]alright my Mama, anyway you [A]do.
Yeah, thats [E7]alright my Mama, anyway you [A]do. [A7add9]

Вверх

The Continuing Story Of Bungalow Bill

  C    G       C     Fm           C     Fm       G
Hey bungalow bill  what did you kill bungalow bill

A    E7      A     Dm           A    Dm       E7
Hey bungalow bill  what did you kill bungalow bill


A Verse:

Am              C                  F             G  Am
He went out tiger hunting with his elephant and gun

C           F
In case of accidents he always took his mom

Em             G      Am                  Fm (I think... maybe Cm?)
Hes the all american bullet headed saxon mothers son

Вверх

The End

     A   D     B    E
-|--5---10----7----12----
-|--5---10----7----12----
-|--2---7-----4----9-----
-|--2---7-----4----9-----
-|-----------------------
-|-----------------------
Oh Yeah  All Right

A                       Eb dim      A
-|-----------------------------------------------
-|-----------------------------------------------
-|-----------------------------------------------
-|-----------------------------------------------
-|-----------4--5--6--7---8---9----9--7--4-------
-|---5-------5--7--8--9--10--11---10--8--5-------
Are you gon na be in my dreams    to night


A7   A      D7   D7
-|--0----0------2----2---------
-|--2----2------1----1---------
-|--0----2------2----2---------
-|--2----2------0----0---------   (repeat six times)
-|--0----0---------------------
-|-----------------------------
Love You    Love You


The leads: Make sure to change your tone completely from
line to line so you sound like three different guys  ;^)


A7    A            D7
-|--------------5-----5--3------------------------------------
-|--5--5--5--5-----5--------3/1-----3--1----------------------
-|-------------------------------2--------2--0----------------
-|------------------------------------------------------------
-|------------------------------------------------------------
-|------------------------------------------------------------


A7  A             D7
-|-----------------------------------------------------------------------
-|----------------b(13)11--11h13p11--------------------------------------
-|--12h14--12h14---------------------12--12--12--------------------------
-|-----------------------------------------------14--14--12--12----------
-|---------------------------------------------------------------15--12--
-|-----------------------------------------------------------------------


A7                  A                       D7
-|---------------------------------------------------------  (this is
-|--12--14--14--14--12--14--14--14--12--14--14--14--12-----   the best
-|--12--14--14--14--12--14--14--14--12--14--14--14--12-----   I got for
-|--12--14--14--14--12--14--14--14--12--14--14--14--12-----   this part!
-|---------------------------------------------------------   So sue me!)
-|---------------------------------------------------------


A7       A              D7
-|--8--8--8--8---------------------------------------------
-|--------------5-----------5--4--5--------------11b(13)---
-|-----------------5-----5-----------14--12--14------------
-|--------------------7------------------------------------
-|---------------------------------------------------------
-|---------------------------------------------------------


A           A7                   D7
-|------------------------------------------------------------5--
-|--------5--5--------5--5-----5--5-----5--7b(9)r7--5h7p5--------
-|--------5--5--------5--5-----5--5-----5--7b(9)r7--5h7p5--------
-|--7--7--------7--7--------7--------7---------------------7-----
-|---------------------------------------------------------------
-|---------------------------------------------------------------
-|---------------------------------------------------------------
-|---------------------------------------------------------------


A     A7   D7
-|---------------------------------------------------------------
-|---------------------------------------------------------------
-|---------------------------------------------------------------
-|---------------------------------------------------------------
-|-----------3--5--3--5--3--5--3--b(7)5--5--3--5-----------------
-|--0--3--5------------------------------------------------------


A              A7      D7
-|-------------------------------------------------------------------
-|-------------------------------------------------------------------
-|--------------5--5--5--5--------------5--5--5--5-------------------
-|--5--5--5--5--------------5--5--5--5--------------75--------------
-|-------------------------------------------------------75--3--0---
-|-------------------------------------------------------------------


A       A7      D7
-|-----------------15b(17)--15-----------------------------------
-|--5/8--8/10--13---------------13--15--13-----------------------
-|---------------------------------------------------------------
-|---------------------------------------------------------------
-|---------------------------------------------------------------
-|---------------------------------------------------------------


A    A7           D7                A
-|---------------------------------------------------------------
-|-----------7--7--7--7--7--7--7--7--7--7--7--7--5---------------
-|-----------7--7--7--7--7--7--7--7--7--7--7--7--6---------------  (sue me
-|-----5--7--7--7--7--7--7--7--7--7--7--7--7--7--7---------------   again!)
-|--7------------------------------------------------------------
-|---------------------------------------------------------------

Вверх

The Fool On The Hill

     Verse 1
C              F
Day after day alone on a hill the
C                                 F
man with the fool grin is keeping perfectly still, But
Dm              G7                 C                   Am
nobody wants to know him, they can see that hes justa fool and
Dm               G7
he never gives an answer.

Chorus
Dm7      Cm  Ab     Cm             Ab
But the fool on the hill sees the sun going down and the
Bb                       Cm                   C
eyes in his head see the world spinning round

Verse 2
Well on the way head in a cloud, the
man of thousand voices talking perfectly loud, But
nobody ever hears him, or the sound he appears to make and
he never seems to notice.

(Chorus)

Verse 3
Day after day alone on a hill the
man with the foolish grin is keeping perfectly still, And
nobody seems to like him, they can tell what he wants to do and
he never shows his feelings.

(Chorus)

Verse 4
Day after day alone on a hill the
man with the foolish grin is keeping perfectly still.
He never listens to them he knows that theyre fools
________Theydont like him.

(Chorus)

C  Am  C

Вверх

The Fool On The Hill (2 вариант)

   C                 F                  C
e|----------------|------------------|-------------------------|--------------
B|----------------|------------------|---------0---1----1---1--|-1--0---------
G|----------------|-----0--2-2-------|-0--2--------------------|---------0----
D|-2--2--2---2--2-|-3-------------3--|-2-----------------------|--------------
A|----------------|------------------|-------------------------|--------------
E|----------------|------------------|-------------------------|--------------
Day af-ter day a-lone on a hill the man with the fool-ish grin is keep-ing
Well on the way head in a cloud the man of   a   thou-sand voic-es talk-ing
Day af-ter day a-lone on a hill the man with the fool-ish grin is keep-ing
Day af-ter day a-lone on a hill the man with the fool-ish grin is keep-ing

F                    Dm                 G7                 C
e|--------------------|-------------------0----------------|----------------
B|----3----3--3-------|----3--3--3-----1-------3-----------|----1----1----1-
G|-2----------------0-|-2--------------------------2----0--|-2-------------2
D|-3------------------|-3-----------------3----------------|-2--------------
A|--------------------|------------------------------------|----------------
E|--------------------|------------------------------------|----------------
Per-fect-ly still But no-bod-y wants to know him they can see that hes just a
Per-fect-ly loud, But no-bod-y ev - er hears him or  the sound he app-ears to
Per-fect-ly still And no-body seems to like him they can tell what he  wants to
Per-fect-ly still He nev-er list-ens to them    he      knows that theyre the

Am               Dm           G7   Dm7     Cm   Ab     Cm
e|-------|----------------------0-----------|-------------------------------
B|-1-----|----3--1--3-----1--3-------1------|-1-----------------------------
G|---2-0-|-2-----------------------------2--|---0-1------0---------0--------
D|-2-----|-3-----------------3-------3------|-1------3--------3-------------
A|-------|----------------------------------|-------------------------------
E|-------|----------------------------------|-------------------------------
fool and he never gives an answer. But the fool on the hill sees the
make and he never seems to notice.
Do and he never shows his feelings.
Fools _______ They dont like him.  Ab                    Bb
Cm                   C
e|---------------------|------------------------|------------------|----------
B|---------------------|----------------------1-|-3-----4---3----1-|-1-1-1-1--
G|-1--0----------0---1-|-3----1--0---1----3-----|------------------|--0-0-0-0-
D|-1----3---3----------|-3----------------------|-1----------------|-2--------
A|---------------------|------------------------|------------------|----------
E|---------------------|------------------------|------------------|----------
sun going down and the eyes in his head see the world spinning round

After 4th verse only
C                 Am                C
e|-----------------|-----------------|-----------------|----------
B|-1---1---1---1---|-1---1---1---1---|-1---1---1---1---|-1--------
G|---0---0---0---0-|---2---2---2---2-|---0---0---0---0-|----------
D|-2---------------|-2---------------|-2---------------|-2--------
A|-----------------|-----------------|-----------------|----------
E|-----------------|-----------------|-----------------|----------

Вверх

The Inner Light

 E|-------------------------------
B|---------------1---1-----------
G|---------1-0-----3---3-1-0-1-0-
D|-1-1-1-3-----1-----------------
A|-------------------------------
E|-------------------------------

-------|
-------|
-------|
-1-1-1-|
-------|
-------|

^This can go on and on,
George has a bunch of
instruments going on here, if youre just
playing alone it sounds good to just
shorten this.

E|--------------------------------------------|
B|-----1--------------------------------------|
G|-3-3---1-1-3-0-0-1----0-1-1-3-0-0-1-----0---|
D|------------------3-3---------------3-3---1-|
A|--------------------------------------------|
E|--------------------------------------------|

Play this whole thing above twice then play this part once

E|-------------------------------------------------------|
B|-4-4-4-2-2-2-1-1-1-------------------------------------|
G|-------------------3-3-3-1-1-1-0-0-0-------------0-1-3-|
D|-------------------------------------31-31-31-------|
A|-------------------------------------------------------|
E|-------------------------------------------------------|

For the outro you can keep repeating this little bit:

E|--------------------
B|--------------------
G|-0-1-3--------------
D|--------------------
A|--------------------
E|--------------------

Вверх

The Long And Winding Road

 Tuning - drop D (D A D G B E)

Keycode - (letter) - section name
h - hammer on
..........A - artificial harmonics (see Appendix)

Roadmap:  Play as follows  A  A  B  A  C  A  D
Section A and A are the same except measure 9.
Section A is played using artificial harmonics. If this is too difficult,
play Section A.
Section D is the ending that is entered after measure 11 of Section A


**  Section A  **

Start with a pick-up measure (measure #0)
Measure #1: B note is fretted instead of open B so that F#, D and B can ring.
If difficult, use open B.
Measure #2: Whatever the chord is, it sounds good
Measure #3: You can slide your pinky from 5th fret to 3rd fret on D string

|     |   |   |   |     |   |   |   |     |   |   |   |     |   |   |   |
-2---|-3---2---------0-|-------------0---|---------0-1---0-|-----------------|
-----|-0-------3-------|---1-1---1-1-----|-3-----3-0-------|-----1---0-------|
-----|-0---------4-----|---0-0---0-0-----|-----4---0-------|-------------0---|
-----|-----------------|---0-0---0-0-----|---5-----3---3---|---2-----------2-|
-----|-----------------|-----------------|-----------------|-3-----3---3-----|
-----|-2---------------|---0-0---0-0-----|-5---------------|-----------------|

Measure #5: x2x032 chord is fingered xIx0RM (index on 5th, middle on 1st, and
ring on 2nd strings) - a little tricky
Measure #7: the number in () may be added.

|   |   |   |     |   |   |   |     |   |   |   |     |   |   |   |
-----0---2-3-----|-0---------------|-------------0---|-----------------|
-----1---3---3---|---0-------------|-----1---3-----3-|-3-----3-1---3---|
-----0---0-----4-|-----0-----------|-----0--(5)------|-----4----(2)----|
---2-------------|---------2-------|---2--(0)--4-----|---5-------3---5-|
-3-------2-------|-----------2-----|-0-------5-------|-----------------|
-----------------|-2-----------2---|-----------------|-5-------3---5---|

Measure #11: G note is fingered with pinky
Measure #12: G note is fingered with index
(there are other possibilities - you can play D7 in Meas#11 on 5th pos)
Measure #12: The last note F# is a pick-up note and is not sometimes played

|   |   |   |     |   |   |   |     |   |   |   |     |   |   |   |
-----0---2-3-----|-0---------------|-----0---2---3---|-3-------3---2---|
-----1---3---3---|---0-------------|-----1---1-------|-------0---------|
-----0---0-----4-|-----0-----------|-----0---2-------|-----0-----------|
---2-------------|---------2-------|---2-------------|---0-------------|
-3-------2-------|-----------2-----|-0---------------|-----------------|
-----------------|-2-----------2---|---------0-------|-5---------------|


**  Section A  **
Measure #9 is the only difference from Section A so I repeat Measures #9 - 12
only
|   |   |   |     |   |   |   |     |   |   |   |     |   |   |   |
-----0---5-3---23|-0---------------|-----0---2---3---|-3-------3---2---|
-----1---3-------|---0-------------|-----1---1-------|-------0---------|
-----0---0---0---|-----0-----------|-----0---2-------|-----0-----------|
---2-------------|---------2-------|---2-------------|---0-------------|
-3-------2-------|-----------2-----|-0---------------|-----------------|
-----------------|-2-----------2---|---------0-------|-5---------------|


**  Section B  **
Repeat this twice for Section B

The timing is a little funny; I think Ive added extra beats. If you like
to be "true" to the Beatles, take out a few notes here and there :-)


|   .   |   .   |   .   |   .     |   .   |   .   |   .   |   .
-5-5-5-----------5-----------0---|-5---3---0-----------------------|
---------------------------------|-5-----------0---------------0---|
-------------0-------------------|-------------------------0-------|
-0-------0-4h------------0-------|---------4-----------4-----------|
---------------------------------|-3---------------3---------------|
---------------------------------|---------------------------------|


|   .   |   .   |   .   |   .     |   .   |   .   |   .   |   .
---------------------------------|----------------------------(2)--|
-0---3-----------------------3---|-3---1---------------------------|
---------0---------------0-------|-2-------2-----------------------|
---------------------0-----------|-------------0-------------------|
-2---------------2---------------|-----------------0---------------|
---------------------------------|-0-------------------------------|


**  Section A  **

In this section, the melody is played entirely using artificial harmonics (as
indicated by A after the number). See Appendix for artificial harmonics. Note
that sometimes bass notes are staggered so the harmonics can be heard. I
chnage things around and this is just an example of how you could do it.

|     |   |   |   |     |   |   |   |     |   |   |   |     |   |   |   |
-2A--|-3A--2A--------0A|-------------0A--|---------0A1A--0A|-----------------|
-----|---------3A------|---1-1---1-1-----|-3A--------------|-----1A--0A------|
-----|-----------4A----|---0-0---0-0-----|-------4---------|-------------0A--|
-----|-----------------|---0-0---0-0-----|-----5-------3---|---2-----------2A|
-----|-----------------|-----------------|-----------------|-3-----3---3-----|
-----|---2-------------|---0-0---0-0-----|---5-----3-------|-----------------|


|   |   |   |     |   |   |   |     |   |   |   |     |   |   |   |
-----0A--2A3A----|-0A--------------|-------------0A--|-----------------|
-------------3A--|---0A------------|-----1A--3A------|-3A------1A--3A--|
---------------4A|-----0A----------|-----------------|---4A--4A--2A--4A|
---2-------------|---------2A------|---2-------4-----|-----5A----------|
-3-------2-------|-----------2A----|-0-------5-------|-----------------|
-----------------|-2-----------2A--|-----------------|-----------------|

|   |   |   |     |   |   |   |     |   |   |   |     |   |   |   |
-----0A--2A3A----|-0A--------------|-----0A--2A--3A--|-3A--------------|
-------------3A--|---0A------------|-----------------|-----------0A----|
---------------4A|-----0A----------|-----------------|---------0A--0A--|
---2-------------|---------2A------|---2-------------|-------0A--------|
-3-------2-------|-----------2A----|-0---------------|-----------------|
-----------------|-2-----------2A--|---------0-------|-5---------------|


**  Section C  **

This is the part where strings come in. Sustain notes as much as possible and
make guitar sounds like string section ;-P

|   |   |   |     |   |   |   |
---------0-----0-|-2-----2-3---5---|
-3-----3---------|-----3-----------|
-----0-------0---|-----------------|
---4-------4-----|---4-------------|
---------0-------|-2---------------|
-5---------------|-----------------|


|   .   |   .   |   .   |   .     |   .   |   .   |    .   |   .
-10----------10--12----------12--|-14----------14--15-------17------|
-----7---8-----------------------|---------12-----------------------|
-0-------------------11--12------|-----11---------------------------|
---------------------------------|-0--------------------------------|
-----------------0---------------|----------------------------------|
---------------------------------|----------------------------------|


**  Section D (end)  **

This is the CODa section, and you come here after you play measure #11 of
section A (or A).
Measure #4: Artificial harmonics again. If you prefer, just omit "A" and fret
as numbered.  I finger this chord by using ring finger to hold 5th AND 6th
strings.
Measure #5: Yes, this single note can make or kill the tune. Get a clear tone!

|   .   |   .   |   .   |   .     |   .   |   .   |    .   |   .
-3-------2-------------------0---|----------------------------------|
-0---------------3---------------|-----1---1-------1----1-----------|
-0-------------------4-----------|-----0---0-------0----0-----------|
---------------------------------|-----0---0-------0----0-----------|
---------------------------------|----------------------------------|
-2-------------------------------|-----0---0-------0----0-----------|

|   .   |   .   |   .   |   .     |   .   |   .   |    .   |   .
---------------------------------|----------------------------------|
---------------------------------|--------------------------3A------|
-0-------2-------4---------------|----------------------4A----------|
-0-------------------------------|-----------------5A---------------|
---------------------------------|-------------5A-------------------|
-0-------------------------------|-5A-------------------------------|


|   .   |   .   |   .   |   .
-3A------------------------------||
---------------------------------|| END
---------------------------------||
---------------------------------||
---------------------------------||
---------------------------------||

Appendix: Artificial Harmonics
To play artificial harmonics, your left hand frets a string as indicated.
For example, if it says "3A", your left hand actually holds string on 3rd
fret. There are two methods for right hand.

(a) classical (I use it here)
Your RH index finger touches 12 frets above the fretted note. Using the
same example, your index finger touches 15th fret (3+12), but do not
fret the string here. Your ring finger (or middle finger) then plucks the
string and youll get harmonics. This takes some practice, so dont
despair if the first attempt fails.

(b) jazzy
Your RH index finger touches 12 frets as above. But your RH thumb is used
to pluck the string.

In (a), your index finger is almost perpendicular to strings. In (b),
your index finger is almost parallel to strings.

The choice of (a) or b) depends on what you play: In (a), your thumb can
play bass notes. In (b), your middle and ring fingers can add hramony
notes or you can do "harmonic cascade".

Practice: You can practice this by playing a scale.

Вверх

The Long And Winding Road (2 вариант)

                         Cm           Gm                 Ab/Bb        Eb
EB/Db   Ab
The long and winding road____ that leads to your door____
wild and windy night______ that the rain washed away___


Eb/G               Cm7  Fm7
Bb7              Eb7sus
will never disappear____ ive seen that road before____
has left a pool of tears___ crying for the day____



It always leads me here, Lead me to your door.
Why leave me standing here? Let me know  the way.



Many times ive been alone___ and many times ive cried.


Anyway___youll never know___the many ways ive tried.___


And still they lead me back____ to the long winding road.____


You left me standing here a long, long time ago.____________





VERSE
CHORUS..............

Вверх

Things We Said Today

    Am        Em         Am  Em     Am       Em      Am
1. You  say  you will  love me,    if   I   have to go.
2. You  say  youll be mine girl, till the end of time.
3. nough to make you  mine girl,  be  the  only    one.


Am         Em      Am  Em     Am      Em       Am
1. Youll be  thinking of  me,   somehow  I  will know.
2. These days such a  kind girl, seems so hard to find.
3. Love  me   all the time girl, well go on  and  on.


C                  C7        F                     Bb
1. Someday when  Im  lonely,  wishing you werent so far away.
2. Someday when were dreaming, deep in love, not  a  lot to say.
3. Someday when were dreaming, deep in love, not  a  lot to say.


Am      Em     Am  Em    Am       Em     Am
1. Then I  will re-mem-ber things we said today.
2. Then we will re-mem-ber things we said today.
3. Then we will re-mem-ber things we said today.


A                D           B7              E7                A
2,3. Me Im just the lucky kind, love to hear you say that love is love,

D             B7             Bb7
2,3. And though we may be blind, love is here to stay and thats e--

Вверх

Think For Yourself

Verse 1
Am          D           Bb           C                       G
Ive got a word or two      to say about the things that you do
Am            D                 Bb
Your telling all those lies
C                  G          Am
About the good things we can have if we close our eyes

Chorus
C7
Do what you want to do
G
And go where your going to
Eb                        D                      G
Think for yourself cause I wont be there with you

Verse 2 (Same Chords as above)
I left you far behind, the ruins of
the life that you had in mind.
And though you still cant see,
I know your minds made up, youre gonna cause more misery.

Verese 3 (Same Chords as above)
Although your minds opaque,
Try thinking more if just for your own sake.
The future still looks good,
And youve got time to rectify all the things that you should.

Вверх

This Boy

 A6 A6 A6
D Bm G A
D Bm G A

D       Bm  G       A7     D  Bm
That boy    took my love away.
G               A7         D  Bm
Though hell regret it someday,
G        A6             D  Bm G A
This boy wants you back again.


D       Bm  G     A7       D  Bm
That boy    isnt good for you.
G             A7        D  Bm
Though he may want you, too,
G        A6             D  Bm D7=20
This boy wants you back again.

D7      G                 F#m
Oh, and this boy would be happy
Bm                       D
Just to love you, but oh my-y-y-y
G                 F#m
That boy wont be happy=20
A7                 A6
Til hes seen you cry-y-y-oh

D    Bm G         A7       D  Bm
This boy wouldnt mind the pain,
G            A7       D  Bm
Would always feel the same,
G        A6            D  Bm G A
Til this boy gets you back again.

D
This boy  =20
D
This boy
D
This boy...

Вверх

Ticket To Ride
mp3

 During the intro and the verse he plays this:

e------0-----------0---
B---------2-----0------
G-2----------2---------
D----------------------
A----------------------
E----------------------

When he says "Away" from the line "Goin away, yea" you strum this

e---2----2-2---2--2---0----0-0---0--0-----
B---3----3-3---3--3---0----0-0---0--0-----
G---4----4-4---4--4---1----1-1---1--1-----
D---4----4-4---4--4---2----2-2---2--2-----
A---2----2-2---2--2---2----2-2---2--2-----
E---------------------0----0-0---0--0-----

CHORUS:

"Shes got a ticket to ride,       Shes got a ticket to ri-i-i-de

e---2---------------------2-----------2---------------------2--------
B---2---------------------3-----------2---------------------2--------
G---2---------------------2-----------2---------------------2--------
D---4---------------------0-----------4---------------------0--------
A---4---------------------------------4------------------------------
E---2---------------------------------2------------------------------

"Shes got a ticket to ride, and she dont care

e----2---------------------0--------
B----2---------------------0--------           On "Care" go back to the main
G----2---------------------1--------           riff
D----4---------------------2--------
A----4---------------------2--------
E----2---------------------0--------

On the bridge its just D7 and E

"Dont know why......High................"

e--2-------------------0----------
B--1-------------------0----------
G--2-------------------1----------
D--0-------------------2----------
A----------------------2----------
E----------------------0----------

riff at the end of the bridge:

e-------------------10------12b---10--12-----
B--10b-------10s12------12-------------------
G------12--9---------------------------------

Вверх

Ticket to ridе

A
I think I'm gonna be sad
I think it's to day, yeh.
Bm E
The girl that's driving me mad is going away.
F#m                       D
She's got a ticket to ride,
F#m                     G6
she's got a ticket to ri-hi hide,
F#m                      E7                 A
she's got a ticket to ride but she don't care.
She said that living with me
is bringing her down, Yeh.
For she could never be free,
when I was around.
D7
I don't know why she's riding so high,
she ought to think twice,
E
she ought to do right by me.
D7                               D7
Before she gets to saying good-bye
she ought to think twice,
E
she ought to do right by me.

Вверх

Till There Was You
mp3

Intro

-1-----|-----------|-------|------
---1---|-----------|-3-----|------
-----2-|-----------|---3---|------
-------|-4---------|-----5-|------
-------|-----------|-------|-3----
-------|-----------|-------|------
F       B7/9- (1)   Gm      C7/9

F          B7/9- (1)
There were bells on a hill
Gm               Bbm
But I never heard them ringing
F     Am     G#m   Gm  C7/9
No I never heard them at all
F Gm C7/9
Till there was you

F             B7/9- (1)
There were birds in the sky
Gm             Bbm
But I never saw them winging
F     Am   G#m   Gm  C7/9
No I never saw them at all
F B7/9- (2)
Till there was you

Bb   Bbm                F
Then there was music     and wonderful roses
D              Gm  Gm7+           G7       C7 (2)   C7/5+
They   tell me in sweet      fragrant meadows of dawn and you

F         B7/9- (1)
There was love all around
Gm             Bbm
But I never heard it singing
F     Am   G#m   Gm  C7/9
No I never heard it at all
F Gm C7/9
Till there was you


Then the solo. It?s played by two guitars, so I tried to merge
the lines

----|---1-----|---------|---------|---------|---3-5-3-|-5-3-5-3|
----|-1---3-1-|---------|-----1-4-|-3-1-----|---3-3-3-|-3-3-3-3|
2-3-|---------|-3-2-0---|---2-----|-----3-2-|-3-3-3-3-|-3-3-3-3|
----|---------|-------3-|-4-------|---------|---------|--------|
----|---------|---------|---------|---------|---------|--------|
----|---------|---------|---------|---------|---------|--------|
F                   B7/9- (1)             Gm

---6-8-6-|-8-6-8-6-|-- -10-|-8--7---|-6--|-5----|-1-1---|-----|
---6-6-6-|-6-6-6-6-|-- -10-|-5--4---|-3--|-5----|-----1-|-----|
-6-6-6-6-|-6-6-6-6-|-- -10-|-5--4---|-3--|-3----|-------|-2---|
---------|---------|-10-- -|-7--6---|-5--|-5----|-------|-----|
---------|---------|-------|--------|----|-3----|-------|---0-|
---------|---------|-------|--------|----|-3----|-------|-----|
Bbm                 F       Am G#m   Gm   C7/6   F

-----------|-----1-
-----------|---1---
-----------|-2-----
---1-4-----|-------
-3---------|-------
-----------|-------
B7/9- (2)   Then there was

Bb   Bbm                F
music     and wonderful roses
D              Gm  Gm7+           G7         C7 (2) C7/5+
They   tell me in sweet      fragrant meadows of dawn and you

F         B7/9- (1)
There was love all around
Gm             Bbm
But I never heard it singing
F     Am   G#m   Gm  C7/9
No I never heard it at all
F
Till there was you

C E C7 (1)             F   C#  F     F7+
Tiiiiiill   there was youuuuuuuuuuuuu

Вверх

Twist And Shout

INTRO
D  G
E|-------------2-------|
B|-------------3-------|
G|-------------2-------|
D|----------0-----0--0-|
A|-0--2--4--------2--2-|
E|----------------3--3-|

A
E|---------------------|
B|-2-------------------|
G|-2-------------------|
D|-2-------------------|
A|-0---0---0---0---0---|
E|---------------------|

PLAY INTRO UNDER THE VOCAL

Well shake it up baby now, twist and shout
Come on come on come on come on baby , now work it on out
Well work it on out  , you know you look so good
You know you got me goin now , just like you knew you would

Ahh            Ahh           Ahh             Ahh
E|--------------------------------0--------------3-|
B|-----------------2--------------2--------------2-|
G|--2--------------2--------------2--------------2-|
D|--2-----2-----2--2-----2-----2--------2-----2----|
A|--0--0-----0--------0-----0--------0-----0-------|
E|-------------------------------------------------|

CONTINUE WITH THE INTRO UNDER THE VOCALS

Well shake it up baby now, twist and shout
Come on come on come on come on baby, now work it on out
You know you twist it little girl, you know you twist so fine
Come on and twist a little closer now,
and let me know that youre mine

Well shake it up baby now, twist and shout
Come on come on come on come on baby, now work it on out
You know you twist it little girl, you know you twist so fine
Come on and twist a little closer now,
and let me know that youre mine

Well shake it shake it shake it baby now
Well shake it shake it shake it baby now
Well shake it shake it shake it baby now

GUITAR BREAK
E|---------------------------------------------|
B|----------------0-----3-----2-----------0----|
G|-2--------2-----------4-----2-----2--------2-|
D|-2--------2-----------------------2--------2-|
A|---------------------------------------------|
E|---------------------------------------------|

Вверх

Two Of Us

 Intro:
(no chord)
-|-----7-----7~--7-----------7-----7~--7-----------------------
-|-------------------------------------------------------------
-|--7-----7---------7--9--7-----7---------7--9-----------------
-|-------------------------------------------------------------
-|-------------------------------------------------------------
-|-------------------------------------------------------------

G
-|-------------------------------------------------------------
-|-------------------------------------------------------------
-|-------------------------------------------------------------
-|----------5---------------5-----5---------------5------------
-|------------------5--5/7----------------5--5/7---------------
-|---3---------5/7-------------3-----5/7-----------------------


Verse:
G
-|-------------------------------------------------------------
-|-------------------------------------------------------------
-|-------------------------------------------------------------
-|----------5---------------5-----5---------------5-----5------
-|------------------5--5/7----------------5--5/7---------------
-|---3---------5/7-------------3-----5/7-------------3---------
Two of us  ri-----ding nowhere  spen----ding  someones

C     Bm     Am7
-|-------------------------------------------------------------
-|-------------------------------------------------------------
-|-------------------------------------------------------------
-|-------------------------------------------------------------
-|--3--3--2--2---0-----0---------------------------------------
-|------------------3-----3--2---------------------------------
Hard   earned pay

G
-|-------------------------------------------------------------
-|-------------------------------------------------------------
-|-------------------------------------------------------------
-|----------5---------------5-----5---------------5-----5------
-|------------------5--5/7----------------5--5/7---------------
-|---3---------5/7-------------3-----5/7-------------3---------
You and me Sun-----day   driving not     ar------riving

C     Bm     Am7             G              D
-|-------------------------------------------------------------
-|-------------------------------------------------------------
-|-------------------------------------------------------------
-|-------------------------------------------------------------
-|--3--3--2--2---0-----0------------------2--3--5--------------
-|------------------3-----3--2---3--2--3-----------------------
On     our    way      back  home

Вверх

Wait

 Em7 A  Am Em  B7 Em

Em7  A    Am Em      B7        Em
Its been a long time, now Im  coming back home
Em7  A    Am Em   B7        Em
Ive been away now, oh how Ive been alone

CHORUS:
G Cmaj7        G        Cmaj7    G  Cmaj7
Wait   till I come back to your side
G          B7       Em
Well forget the tears we cried

But if your heart breaks, dont wait, turn me away
And if your hearts strong, hold on, I wont delay ...CHORUS

BRIDGE:
Em           Am                D                   G
I feel as though you ought to know that Ive been good
Em
As good as I can be
Am                D
And if you do, Ill trust in you
G                Em B
And know that you will wait for me

REPEAT VERSE ONE AND CHORUS
REPEAT VERSE TWO AND VERSE ONE

Вверх

We Can Work It Out
mp3

 Verse 1:
---------

D             Dsus4 D
Try to see it  my   way

Dsus4           C               D
Do I have to keep on talking till I cant go on

D                 Dsus4 D
Why do you see it your  way ?

D                      Dsus4         C                D
Theres a chance that we might fall apart before too long



Chorus:
--------

G              D
We can work it out

G              A
We can work it out



Verse 2:
---------

D                    Dsus4 D
Think of what youre say - ing

D              Dsus4               C                   D
You can get it wrong and still you think that its all right

D                 Dsus4 D
Think of what Im say - ing

D              Dsus4          C                    D
We can work it out and get it straight or say goodnight



Chorus:
--------

G              D
We can work it out

G              A
We can work it out



Middle 8 :
------------

Bm                    Bm/A       G   F#7sus4
Life is very hard and theres no time

F#          Bm          Bm/A      Bm/G     Bm/F#
For fussing and fighting my friend

Bm                         Bm/A   G   F#7sus4
I have always thought that its a crime

F#     Bm      Bm/A Bm/G  Bm/F#
So I will ask you once again

Вверх

We Can Work It Out (2 вариант)
mp3

 G             C  G     G            C               F               G
Try to see it my way.  Do I have to keep on talking till I cant go on
G                C    G
While you see it your way
G               C                F                 G
Run the risk of knowing that our love may soon be gone
C              G    C              D
We can work it out, we can work it out
.
verse 2:
G                    C  G
Think of what youre saying
G                C                   F                   G
You can get it wrong and still you think that its all right
G                 C  G
Think of what Im saying
G              C                F                 G
We can work it out and get it straight or say goodnight
C              G    C              D
We can work it out, we can work it out
.                Em                                Am B
CHORUS:         Life is very short and theres no time
.          |    B               Em          D  C  D
.          |    For fussing and fighting my friend
.          |    Em                                Am  B
.          |    I have always thought that its a crime
.          |    B         Em      D     C    D
.          |    So I will ask you once again
G             C  G
Try to see it my way
G              C            F             G
Only time will tell if I am right or I am wrong
G                C    G
While you see it your way
G                     C              F               G
Theres a chance that we might fall apart before too long
C              G    C              D
We can work it out, we can work it out
.
(CHORUS)

Вверх

When Im Sixty Four

 [G]When I get older, losing my hair, many years from [D7]now,
will you still be senting me a Valentine, birthday greetings, [G]bottle of wine?
If Id been out till quarter to three, [G7]would you lock the [C]door?
Will you still [Eb7]need me, [G]will you still [E7]feed me, [A7]when
Im [D7]sixty-[G]four?


[Em]Hmm------[D]mmm------[Em]mmmh.
[Em]Youll be older, [B7]too.
[Em]Aaah, and if you [Am]say the word, [C]I could [D7]stay with [G]you.


I could be handy, mending a fuse, when your lights have gone.
You can knit a sweater by the fireside, sunday mornings, go for a ride.
Doing the garden, digging the weeds, who could ask for more?
Will you still need me, will you still feed me, when Im sixty four?


Every summer we can rent a cottage in the Isle of Wight if its not to dear.
We shall scrimp and save.
Ah, grandchildren on your knee, Vera, Chuck, and Dave.


Send me a postcard, drop me a line stating point of view.
Indicate precisely what you mean to say, yours sincerely wasting away.
Give me your answer, fill in a form, mine forever more.
Will you still need me, will you still feed me, when Im sixty four?

Вверх

While My Guitar Gently Weeps

 {c:Intro }

Am | Am7/G | Am6/F# | F
Am | G     | D      | E7


I [Am]look at you [Am7/G]all see the [Am6/F#]love there thats
[F]sleeping
[Am]While my gui[G]tar gently [D]weeps      [E7]
I [Am]look
at the [Am7/G]floor and I [Am6/F#]see it needs [F]sweeping
[Am]Still my
gui[G]tar gently [C]weeps       [E7]

[A]I dont know [C#m]why [F#m]
nobody [C#m]told you
[Bm]how to unfold your [E7/4]love   [E7]

[A]I
dont know [C#m]how [F#m] someone contr[C#m]olled you
[Bm]They bought
and sold [E7/4]you    [E7]

I look at the world and I notice its
turning
While my guitar gently weeps
With every mistake we must surely
be learning
Still my guitar gently weeps

{c:Solo}

Am | Am7/G | Am6/F#
| F
Am | G     | D      | E7
Am | Am7/G | Am6/F# | F
Am | G     | C
| E7

I dont know how you were diverted
You were perverted too
I dont
know how you were inverted
No one alerted you.

I [Am]look at you
[Am7/G]all see the [Am6/F#]love there thats [F]sleeping
[Am]While my
gui[G]tar gently [D]weeps      [E7]


[Am]..Look at you [Am7/G]all
[Am6/F#]                  [F]
[Am]Still my gui[G]tar gently
[D]weeps      [E7]

{c:Solo to the end...}

Вверх

While My Guitar Gently Weeps (2 вариант)

 4/4
_______________
| | | | | | | |   Am
e|-----------------||-----------------|-----------------|-----------------|
H|-----------------||---------0---1---|---------0---1---|---------0---1---|
G|-----------------|*-2---2-----------|-2---2-----------|-2---2-----------|
D|---------------2-|*---2---2---2---2-|---2---2---2---2-|---2---2---2---2-|
A|-----------------||-0-------0-------|-----------------|-----------------|
E|-----------------||-----------------|-3-------3-------|-2-------2-------|

_________________
A#7               Am                             [+] | 1
e|-----------------|-----0-----------|-----------------|-----------------|
H|-3---1-------3---|-----1---1-------|-0---------------|---------1-------|
G|-----------------|---------2---2---|-----0---2---0---|-----2-------2---|
D|---3---3---3---3-|---2---2---2---2-|---0---0---0---0-|---0---0---0---0-|
A|-----------------|-0---------------|-----------------|-----------------|
E|-1-------1-------|-----------------|-3-------3-------|-2-------2-------|

___________________
| 2
| C                 E                 II 4/6 _ _ _ _ _
e|-----------------||-------------0---|-----0-----0-0---|-----------------|
H|-----------------||-----1---3---1---|-------------0---|-----2---2---2---|
G|-1-1h2p1-2p0-2-2-*|-----0---0-------|---1-----2-------|-----2-----4-----|
D|-2---------------*|---2---2---2---2-|-----------------|---2---2-------2-|
A|-----------------||-3-------3-------|-----------------|-0---------------|
E|-0-------0-------||-----------------|-0-----2-----4---|-----------------|

IV                II                IV(Am)            II _ _ _ _ _ _ _
e|-4---------------|-----------------|-----------------|-----------------|
H|-------7-]---5---|-----2---2---2---|-5---------------|-----------------|
G|-----4-----4---4-|-----2---2-4-2---|-----6-------6---|-----4---4p2-4---|
D|---6-----6-------|---4---4-------4-|---6---6---6-----|---4---4-------4-|
A|-4---------------|-----------------|-4-------4-----4-|-2-------2-------|
E|-----------------|-2-------2-------|-----------------|-----------------|

_ _ _ _ _ _ _ _  E                                   II 4/6 _ _ _ _ _
e|-----------------|-----0-----0-----|-----0-----------|-----------------|
H|-5-------2-------|-------------2---|-------0---------|-----2---2---2---|
G|-----2-------2---|---1-----2---1---|---1-----2p1-----|-----2-----4-----|
D|---4---4---4---4-|-2-----4---------|-------------4p2-|---2---2-------2-|
A|-2---------------|-----------------|-----------------|-0-------0-------|
E|-----------------|-0-------------0-|-0---------------|-----------------|

IV _ _ _ _ _ _ _  II _ _ _ _ _ _ _  IV(Am) _ _ _ _ _  II _ _ _ _ _ _ _
e|-4---------------|-----------------|-----------------|-----------------|
H|-------7-]---5---|-----2---2---2---|-5---------------|-----------------|
G|-----4-----4---4-|-----2---2-4-2---|-----6-------6---|-----4---4p2-4---|
D|---6-----6-------|---4---4-------4-|---6---6---6-----|---4---4-------4-|
A|-4---------------|-----------------|-4-------4-----4-|-2-------2-------|
E|-----------------|-2-------2-------|-----------------|-----------------|

_ _ _ _ _ _ _ _   E
e|-----------------|-----------------|-----------------||
H|-5-------2-------|-------0-------0-|-0---------------||
G|-----2-------2---|-----1-------2---|-2---------------*|
D|---4---4---4---4-|---2-------4-----|---------------2-*|
A|-2-------2-------|-----------------|-----------------||
E|-----------------|-0-------0-------|-0---------------||

[+]               E                           Harm. 12
e|-----------------|-------------0---|---------0-------||
H|---------1-------|---------0-------|-------0---------||
G|-----2-------2---|-1---2---0-------|-----2---2-------||
D|---0---0---0---0-|-2---4-----------|---2-------------||
A|-----------------|-----------------|-0-------0--<0>--||
E|-2-------2-------|-0---------------|-----------------||

Вверх

Why Dont We Do It

   			D
Why dont we do it in the road?

Why dont we do it in the road?
D7			G
Why dont we do it in the road?
G7			D7
Why dont we do it in the road?
A7
No one will be watching us,
G7			D7
Why dont we do it in the road?

Repeat three times

Вверх

With A Little Help From My Friends

      Verse 1
C              G       Dm
What would you do if I sang out of tune would you
G7          C
stand up and walk out on me?
G             Dm
Lend me your ears and Ill sing  you a song and Ill
G7          C
try not to sing out of key. Oh..


Chorus
Bb               F            C
I get by with a little help from my friends. Mm, I get
Bb                 F            C
high with a little help from my friends. Mm, Im gonna
F                              C
try with a little help from my friends.


Verse 2
What do I do when my loveis away, does it
worry you to be alone?
How do I feel by the end of the day, are you
sad because youre on your own? No..

(Chorus)

C      Am7     D7      C         Bb     F
Do you need anybody? I need somebody to love. Could it
Am    D7      C        Bb      F
be anybody? I want somebody to love.

Verse 3
Would youbelive in a love at first sight? Yes, Im
certain that it happens all the time.
What do you see when you turn out the light? I cant
tell you but I know its mine. Oh..

(Chorus)

Вверх

With A Little Help From My Friends (2 вариант)

 E             B         F#m
What would you do if I sang out of tune
B7          E
Would you stand up and walk out on me?
B              F#m
Lend me your ears and Ill sing you a song
B7          E
And Ill try not to sing out of key

CHORUS:
D                  A             E
Oh, I get by with a little help from my friends
D                  A             E
Mm, I get high with a little help from my friends
A                               E    B7
Mm, gonna try with a little help from my friends

E         B           F#m
What do I do when my love is away
B7     E
(Does it worry you to be alone?)
B           F#m
How do I feel by the end of the day
B7            E
(Are you sad because youre on your own?)

No...CHORUS

BRIDGE:
E        C#m       F#m7    E      D        A
(Do you need anybody?) I need somebody to love
C#m    F#m7     E       D        A
(Could it be anybody?) I want somebody to love

Would you believe in a love at first sight
Yes, Im certain that it happens all the time
What do you see when you turn out the light
I cant tell you but I know its mine ...CHORUS

BRIDGE #2:
(Do you need anybody?) I just need somebody to love
(Could it be anybody?) I want somebody to love

A          D                A                E
Oh, I get by with a little help from my friends
D                  A             E
Mm, Im gonna try with a little help from my friends
D                 A             E
Oh I get high with a little help from my friends
D                                A
Yes, I get by with a little help from my friends
C/G  Am6  E
With a little help from my friends

Вверх

Yellow submarine
mp3

G      D         C      G
In the town where I was born
Em       Am        C       G
Lived a man who sailed to sea
G       D      C       G
And he told us of his life
Em     Am      C      D
In the land of submarines
G      D        C     G
So we sailed up to the sun
Em        Am        C      G
Till we found the sea of green
G        D       C         G
And we lived beneath the waves
Em       Am     C   D
In our yellow submarine

CHORUS:
G                  D
We all live in a yellow submarine
G
Yellow submarine, yellow submarine

G                  D
We all live in a yellow submarine
G
Yellow submarine, yellow submarine

And our friends are all on board
Many more of them live next door
And the band begins to play ...

CHORUS

As we live a life of ease
Everyone of us has all we need
Sky of blue and sea of green
In our yellow submarine ...

CHORUS TWICE

Вверх

Yesterday
mp3

C         E7                         Am        G F
Yesterday, all my trouble seemed so far away
G                    C
Now it looks as though there here to stay
Am   D       F      C
Oh, I believe in yesterday.
Sudenly, I?m not half the man I used to be
There?s shadow hanging over me
Oh, yesterday come suddenle.

E7       Am
Why she had to go
F        G       C
I donn?t know she would?t say.
I said somthing wrong now I long for yesterday.

Yesterday, love was such an easy game to play.
Now I need a place to hide away
Oh, I believe in yesterday.

Вверх

Yesterday (2 вариант)
mp3

 G5
e|---3-3-3---3-3-3-|----3--3--3-----3--3--3-|---3-3-3----3-3---|
b|---3-3-3---3-3-3-|----3--3--3-----3--3--3-|---3-3-3----3-3---|
g|---0-0-0---0-0-0-|----0--0--0-----0--0--0-|---0-0-0----0-0---|
d|-----------------|------------------------|------------------|
a|-----------------|------------------------|------------------|
e|-3-------3-------|-3-----------3----------|-3-------3------0-|
Yesterday,

F#m         B7           Em             Em/D   Cmaj7        D7
e|---2-2-2---2--2-2-|---0-0-0---0---0-|----0--0--0-----2--2--2-|
b|---2-2-2---0--0-0-|---0-0-0---0---0-|----0--0--0-----1--1--1-|
g|---2-2-2---2--2-2-|---0-0-0---0---0-|----0--0--0-----2--2--2-|
d|------------------|-2-------2---0---|-------------0----------|
a|---------2--------|-----------------|-3----------------------|
e|-2----------------|-----------------|------------------------|

all my troubles seemed so far away Now it looks as though theyre

G5                G/F#   Em7          A           C      G5
e|----3-3--3-----3-----3-|----------------0--0-0-|---3-3-3-3-3-|
b|----3-3--3-----3-----3-|----3--3--------2--2-2-|-1-3-3-3-3-3-|
g|----0-0--0-----0-----0-|----0--0--------2--2---|-0-0-0-0-0-0-|
d|-----------------------|----2--2---------------|-------------|
a|-----------------------|-------------0---------|-3-----------|
e|-3----------3-----2----|-0--------0------------|---3-3-------|

Here to stay,      Oh  I    believe       in    yesterday.

F#m         B7           Em                Em/D
e|--3-3-3---3-3---|---2-2-------2--2--2-|---0--0--0-----0-----0|
b|--3-3-3---3-3---|---2-2-------0--0--0-|---0--0--0-----0-----0|
g|*-0-0-0---0-0---|-----2-------2--2--2-|---0--0--0-----0-----0|
d|*---------------|---------------------|-2----------2-----0---|
a|----------------|----------2----------|----------------------|
e|-3------3-----3-|-2-----2-------------|----------------------|

1. Suddenly,              I'm not half the man I used to be.
2. Yesterday,             Love was such an easy game to play.

Cmaj7     D7          G5              G/F#   Em7         A
e|---0-0-0---2-2-2-|---3-3-3---3-------|---------------0--0----|
b|---0-0-0---1-1-1-|---3-3-3---3-----3-|----3-3--------2--2----|
g|---0-0-0---2-2-2-|---0-0-0---0-----0-|----0-0--------2--2----|
d|---------0-------|-------------------|----2-2----------------|
a|-3---------------|-------------------|------------0----------|
e|-----------------|-3-------3----2----|-0-------0-------------|

There's a shadow hanging over me,        Oh  yesterday   came
Now I need a place to hide away.    Oh     I believe    in

C    G5              F#m         B7         Em  D   C   B
e|-----3--3--3-------|--------------2--2--2-|-0---2---3---2--0-|
b|-1---3--3--3-----0-|----2--2--2---0--0--0-|------------------|
g|-0---0--0--0-----0-|----2--2--2---2--2--2-|------------------|
d|-------------------|----------------------|-2---0------------|
a|-3-----------------|------------2---------|---------3---2----|
e|-----3--------3----|-2--------------------|------------------|
suddenly.             }  Why she had to go I don't
yesterday.            }

Am6         D7          G5                   F#m      B7
e|---2--2--2-----2--2-2-|---3-3-3-----3-3----|-----------2-2-2-|
b|---1--1--1-----1--1-1-|---3-3-3-----3-3----|-----2-2---0-0-0-|
g|---2--2--2-----2--2-2-|---0-0-0-----0-0----|-----2-2---2-2-2-|
d|------------0---------|--------------------|-----------------|
a|-0--------------------|--------------------|---------2-------|
e|----------------------|-3--------3-------0-|-2-2-------------|
know   she wouldn't say.                          I      said

Em    D     C     B      Am          D7           G5
e|-0----2-----3-----2--0-|-------0--0-------------|------------|
b|-----------------------|----1--1--1-----1--1--1-|-3----------|
g|-----------------------|----2--2--2-----2--2--2-|-0---------*|
d|-2----0----------------|-------------0----------|-----------*|
a|------------3-----2----|-0----------------------|------------|
e|-----------------------|------------------------|-3----------|
something  wrong, now I  long    for yesterday.

G5                F#m      B7         Em                Em/D
e|-3-3-3-3---3-3---|---2-2-2---2--2--2-|---0--2--0-----0-----0-|
b|-3-3-3-3---3-3---|---2-2-2---0--0--0-|---0--0--0-----0-----0-|
g|-0-0-0-0---0-0---|---2-2-2---2--2--2-|---0--0--0-----0-----0-|
d|-----------------|-------------------|-2----------2-----0----|
a|-----------------|---------2---------|-----------------------|
e|-3-------3-----0-|-2-----------------|-----------------------|

Yesterday,                  love was such an easy game to play.

Cmaj7       D7         G5             G/F#   Em7     A
e|---0--0--0-----2-2-2-|---3-3-3-----3-------|-----------0-0-0-|
b|---0--0--0-----1-1-1-|---3-3-3-----3-----0-|---3-3-----2-2-2-|
g|---0--0--0-----2-2-2-|---0-0-0-----0-----0-|---0-0-----2-2-2-|
d|------------0--------|---------------------|---2-2-----------|
a|-3-------------------|---------------------|---------0-------|
e|---------------------|-3--------3-----2----|-0-----0---------|
Now I need a place to  hide away. Oh I believe in

C    G5                         A7          C     (G5)
e|-----3--3--3--3--3-|-3-----3--3--3----3--3-|-3-----3---3----||
b|-1---3--3--3--3--3-|-3-----3--3--2----2--2-|-1-----1Н3-1Н3--||
g|-0---0--0--0--0--0-|-0--0--0--0--0-0--0--0-|-0--0--0---0----||
d|-------------------|-----------------------|----------------||
a|-3-----------------|-----------------------|----------------||
e|-----3--3----------|-----------------------|----------------||
yesterday.            Hm

Вверх

You Cant Do That

        D
I got something to say that might cause you pain,

If I catch you talking to that boy again,
G                           D
Im gonna let you down, and leave you flat.
A7             G                D
Because I told you befo--ore you cant do that.
D
Well its the second time I caught you talking to him,

Do I have to tell you one more time I think its a sin.
G                           D
I think Ill let you down, and leave you flat.
A7             G                D
Because I told you befo--ore you cant do that.
F#7    Bm         Em              F#m       D
Everybodys gree--een, cause Im the one who won your love,
F#7   Bm       Em
But if theyd see--een, you talking that way,
F#m
theyd laugh in my face.
D
So please listen to me if you wanna stay mine,

I cant help my feelings I go out of my mind,
G                           D
Im gonna let you down, and leave you flat.
A7             G                D
Because I told you befo--ore you cant do that.

(Instrumental same as verse)
D         G       D       A7     G     D

F#7    Bm         Em              F#m       D
Everybodys gree--een, cause Im the one who won your love,
F#7   Bm       Em
But if theyd see--een, you talking that way,
F#m
theyd laugh in my face.
D
So please listen to me if you wanna stay mine,

I cant help my feelings I go out of my mind,
G                           D
Im gonna let you down, and leave you flat.
A7             G                D
Because I told you befo--ore you cant do that.
A7             G                D
Because I told you befo--ore you cant do that.

Вверх

You Know My Name

 Intro

G/D    A    D  F#m
G    A  D  F#m  G  A

G            Bb+
You know my name,

Bm            E7
Look up the number

G           D    Em
You know my name

A7
Look up the number

D    F#m        G           A7
You, you know, you know my name,

D    F#m        G           A7
You, you know, you know my name,


Tacet (bongoes w/ Latin feel)

Spoken
"Good evening and welcome to Slaggers
featuring Denis OBell"

D           A7
Ah Ringo

D
Lets hear it for Denis

A7
Good evening
(w/Lounge feel)

G            F#+
You know my name

Bm                E7
Better look up my number

G            D
You know my name

Em                         A7
Thats right, Look up my number

D
You,

You know,

G            A
You know my name

D
You,

You know,

G            A
You know my name

G              F#+
You know my name
Bm
Ba Ba Ba Ba Ba Ba Ba Ba Ba Ba

E7
Look up my number

G           D
You know my name

Em                         A7
Thats right, Look up the number

D
Oh, you know, you know

Em           A7
You know my name

D             Em               A7
You know, you know you know my name,

G
Huh huh huh huh

F#+
You know my name

F#       Bm
Ba ba ba pum

E7
Look up the number

G             D     Em
You know my name

A7
Look up the number

D                Em
You-a, you know, you know my name

A7    D               Em7          A13     D
Baby you-a, you know, you know my name

Em7          A13
You know you know my name

D                     Em7    A13
You know you know my name

Spoken:
"Go on Denis, Lets hear it for Denis Obell"

D                    G           A7
You know, you know, you know my name

D                    G           A7
You know, you know, you know my name

G
Prrr you know my name

D/f#
Look up the number


Bm
You know my name

Em          G
Look up the number

D
You know,

Em
You know my name

A7
Look up the number

(at this point the song gets weird)

D
You know my number three

G             A7
You know my number two

D
You know my number three

G             A7
You know my number four

D
You know my name

G                G#dim7
You know my number too

A7
You know my name, you know my number


Whats up with you?

D6
You know my name


Thats right yeah.

End lyrics

Ill include the final Jazzy chords for completness,
Youll probably have to listen to the record
its played on a piano, so its not 100%

Includ various background noises (Vomitting?)

(one line per measure 4/4 time)

D
G  A7sus
D
Gmaj9
G
F#+ Bm

E9
G D
Em
A7
D
G A7
D
G A7
G
F#+
Bm
E9
G D
Em7
A7
D
G A7
D
G A7
D
A
G#dim7
D A7sus
D13

end

Вверх

Youre Gonna Lose That Girl

 Intro
E		     C#m7
Youre gonna lose that girl.
F#m7		  B7
Youre gonna lose       that      girl.

Verse
E                     G#m7
If you dont take her out tonight
F#m7            B7
Shes gonna change her mind
E                   G#m7
And I will take her out tonight
F#m7          B7
and I will treat her kind

Chorus
B7           E
Youre gonna lose that girl
C#m7                   F#m7    B7
Youre gonna lose      that    girl

Repeat verse w/ new lyrics, same chords

If you dont treat her right my friend
youre gonna find her gone
Cause I will treat her right and then
youll be the lonely one.

Chorus

Bridge

B7           F#m7         D
Youre gonna lose
G                    C                     G
Ill make a point of takin her away from you
Yeah
C               F
The way you treat her, what else can I do?

Solo
E            G#m7
Repeat bridge
Repeat first verse
Repeat Chorus

Outro

F#m7              D         A       E
Youre gonna      lose      that    girl


Im outa here

Вверх

Your Mother Should Know

Am
Oo oo oo oo
Oo oo oo oo
F
Lets all get up and dance to a song
A7/E            Dm
That was a hit before your mother was born.
G7                    C         C/B   A7
Though she was born a long long time ago,
D7     G7
your mother should know
C
Your mother should know.
E7
Sing it again.

Вверх

You Wont See Me

       A        E        D         A
When I call you up, your lines engaged.
A     E        D        A
I have had enough, so act your age!
A7       D         Dm             A
We have lost the time that was so hard to find,
A       E       E         A        A   Asus2 Am  A
And I will lose my mind if you wont see me. (You wont see me)
E         A        A   Asus2 Am  A
You wont see me. (You wont see me)

I dont know why you should want to hide
But I cant get through, my hands are tied.
I wont want to stay, I dont have much to say,
but I get turned away, and you wont see me. (You wont see me)
You wont see me. (You wont see me)

BRIDGE
E          E7         E           A
Time after time you refuse to even listen.
B7         B         E               E7
I wouldnt mind if I knew what I was missin.
(No I wouldnt no I wouldnt)

Though the days are few theyre filled with tears,
and since I lost you it feels like years.
Yes, it seems so long, girl since youve been gone,
and I just cant go on if you wont see me. (You wont see me)
You wont see me. (You wont see me)

BRIDGE

Though the days are few theyre filled with tears,
and since I lost you it feels like years.
Yes, it seems so long, girl since youve been gone,
and I just cant go on if you wont see me. (You wont see me)
You wont see me. (You wont see me)

A   E
Ooh ooh la la la
D   A
Ooh ooh la la la

Вверх