The Doors

Before you
Break On Through
Crystal Ship
Light my firе
Love Street
People Are Strange
People are strangе
Riders On The Storm
Riders On The Storm (2 вариант)
Spanish Caravan
This Next part is where the Harpsichord starts
Universal Mind
Yes, The River Knows
Вверх

Before you

Fm                  Cm
slip    into      unconsiousness I'd
Bb                  Db
Like to have      another kiss,  an-
F                   Bb7
oth   -   er        flashing
C         Bb        F         Eb          F         Eb
chance           at bliss,  another     kiss,     another
F         Db        Ab        Eb
kiss.
C7                  C7
The
days are bright and filled with pain, en-
close me in your gentle rain. The
time you ran was too insane, we'll meet again, we'll meet a-
gain.
[piano solo]
Fm                  Eb
Fm                  Eb
Fm        Db        Ab        Eb
C7                  C7
Oh,
tell me where your freedom lies, the
streets are fields that never die. De-
liver me from reasons why you'd rather cry, I'd rather
fly.
The
crystal ship is being filled, a
thousand girls, a thousand thrills. A
million ways to spend your time; when we get back, I'll drop a
line.

Вверх

Break On Through

Intro/Verse:
============

Emajor
sl             . .	    sl               .
e|----------------------------|--------------------------------|
B|---------------------------.|--------------------------------|
G|----------------------------|--------------------------------|
D|--------2-0-----2-2-----0--.|----------2--0-----2--2-----0-2-|
A|------------(2)------2------|---------------(2)-------2------|
E|-12-(0)---------------------|-12--(0)------------------------|

You know the day destroys the night,     night divides the day

{* The two ghost notes above are played at different parts of *}
the song.
{* By listening to the album, you can tell when to play them. *}

Bridge:
=======

Dmajor

e|----2-------2------------2--------2---|
B|----3-------3------------3--------3---|
G|----2-------2------------2--------2---|
D|----0-------0------------0--------0---|
A|---(0)-----(0)----------(0)------(0)--|
E|--------------------------------------|

Tried to run,         tried to hide
Chorus:
=======

Emajor
|3
e|-------------------------------|-----------------------------|
B|-------------------------------|-----------------------------|
G|-----------------0h2p0---------|---------------------0h2p0---|
D|-----------0-1h2-------2-0--2--|--------------0-1h2---------2|
A|-----0h1-2---------------------|-------0h1-2-----------------|
E|-0-3---------------------------|--0-3------------------------|

Break on through to the other side,
Break on through to the other side,
Break on through to the other side, yeah.

{* Repeat Intro/Verse and Bridge *}

We chased our pleasures here, dug our treasures there
But can ya still recall the time we cried?

{* Repeat Chorus *}

Break on through to the other side,
break on through to the other side.

{* Repeat Intro/Verse during keyboard solo *}

Everybody loves my baby, everybody loves my baby,
She get...She get...She get...She get...high.....

{* Repeat Intro/Verse and Bridge *}

I found an island in your arms, country in your eyes,
Arms that chain, eyes that lie.

Revised Chorus:
===============

Emajor
|4
e|----------------------------|--------------------------------|
B|----------------------------|--------------------------------|
G|----------------0h2p0-------|--------------------------------|
D|----------0-1h2-------2-0-2-|-----------0h1h2-----------0h1h2|
A|----0h1-2-------------------|-----0h1h2-----------0h1h2------|
E|0-3-------------------------|-0-3-------------0-3------------|

Break on through to the other side,
break on through to the other side,
Break on through, oh...oh yeah...

Second Bridge:
==============

E7#9

e|----15--15--15---15---15----15--15----15---15---15---X---15--|
B|----15--15--15---15---15----15--15----15---15---15---X---15--|
G|----13--13--13---13---13----13--13----13---13---13---X---13--|
D|-------------------------------------------------------------|
A|-------------------------------------------------------------|
E|-0-------------0----0----0----------0----0----0--------------|

{* Continue, using Second bridge as pattern *}

Made the scene, week to week, day to day, hour to hour

{* Repeat First Bridge *}

Gate is straight, deep and wide

Outro:
======

Emajor

e|-------------------------------------------------------------|
B|-------------------------------------------------------------|
G|-----------------0h2p0------------------------0h2p0----------|
D|-----------0-1h2-------2--0-2-----------0-1h2--------2---0-2-|
A|-----0h1-2------------------------0h1-2----------------------|
E|-0-3--------------------------0-3----------------------------|

Break on through to the other side,
break on through to the other side,

Emajor

e|----------------------------------------------------|
B|----------------------------------------------------|
G|----------------------------------------------------|
D|------------0-2---------------0-2---------------0-2-|
A|-----0h1h2-------------0h1h2-------------0h1h2------|
E|-0-3---------------0-3---------------0-3------------|

Break on through, break on through, break on through

e|----------------0--0-0-0--0-0--0-0--0-0--0-0-0-0-0-0-0-0-0-0-|
B|---------2h3h5-b3-b3--b3---b3---b3---b3---b3--b3--b3--b3--b3-|
G|-0h2h3h4-----------------------------------------------------|
D|-------------------------------------------------------------|
A|-------------------------------------------------------------|
E|-------------------------------------------------------------|

Break on through, yeah, yeah, yeah, yeah, yeah, yeah, yeah!

Вверх

Crystal Ship

Before you
Fm                  Cm
slip    into      unconsiousness I?d
Bb                  Db
Like to have      another kiss,  an-
F                   Bb7
oth   -   er        flashing
C         Bb        F         Eb          F         Eb
chance           at bliss,  another     kiss,     another
F         Db        Ab        Eb
kiss.
C7                  C7


The
days are bright and filled with pain, en-
close me in your gentle rain. The
time you ran was too insane, we?ll meet again, we?ll meet a-
gain.


[piano solo]
Fm                  Eb
Fm                  Eb
Fm        Db        Ab        Eb
C7                  C7


Oh,
tell me where your freedom lies, the
streets are fields that never die. De-
liver me from reasons why you?d rather cry, I?d rather
fly.


The
crystal ship is being filled, a
thousand girls, a thousand thrills. A
million ways to spend your time; when we get back, I?ll drop a
line.

Вверх

Light my firе

      Dm7                     Hm7
You know that it would be untrue
Dm7                     Hm7
You know that I would be a liar
Dm7                Hm7
If I was to say to you
Dm7                        Hm7
Girl, we couldn't get much higher
C             D        G    Em
Come on baby, light my fire
C             D        G    Em
Come on baby, light my fire
C              G        A
Try to set the night on fire
The time to hesitate is through
No time to wallow in the mire
Try now we can only lose
And our love become a funeral pyre
Come on baby, light my fire
Come on baby, light my fire
Try to set the night on fire, yeah
The time to hesitate is through
No time to wallow in the mire
Try now we can only lose
And our love become a funeral pyre
Come on baby, light my fire
Come on baby, light my fire
Try to set the night on fire, yeah
You know that it would be untrue
You know that I would be a liar
If I was to say to you
Girl, we couldn't get much higher
Come on baby, light my fire
Come on baby, light my fire
Try to set the night on fire
Try to set the night on fire
Try to set the night on fire
Try to set the night on fire

Вверх

Love Street

Intro:  Am   G   Gm   F

Am           G
She lives on Love Street,
Gm              F
lingers long on Love Street.
Am        G
She has a house and garden,
Gm              F
I would like to see what happens.

Am                F
She has robes and she has monkeys,
Gm           F
lazy diamond studded flunkies.
Gm      Am         Bb            Fmaj
She has wisdom and knows what to do,
Gm     Fmaj    Bb      A7
she has me and she has you.

(spoken words with chords)

I see you live on Love Street,
there?s a store where the creatures meet.
I wonder what they do in there,
summer sunday and a year.
I guess I like it fine  so far.


(Fmaj - x03210)

Вверх

People Are Strange
mp3

INTRO
INTRO    Em ->    Am ->       Am ->	  B Em
E|-----|------------------------------------------|
B|-----|o-------------1---------1----------------o|	between the
G|-----|-------0----2---2-0---2---2-0-------------|	repeat bar
D|-----|----2----2----------2---------2---4-------|	and that?s the
A|2-0--|o-----2-------------------------2---2----o|	verse thing.
E|----3|--0-----------------------------------0---|	the lyrics and

Em		   Am		 Em
People are strange When you?re a stranger
Am	   Em   B	    Em
Faces look ugly When you?re alone

(End riff, then start it over on "Women")

Em	   	  Am	      Em
Women seem wicked when you?re unwanted
Am	    Em	   B		Em
Streets are uneven when you?re down

Chorus
Em		    G				B
When you?re strange faces come out in the rain
G				B
When you?re strange no one remembers your name
B			  B
when you?re strange   when you?re strange
B  (Тут заново надо начать играть INTRO)
when you?re strange   All right yeah

Вверх

People are strangе

 Em                  Am             Em
People are strange when you're a stranger
Am        Em     H           Em
Faces look ugly when you're alone
Women seem wicked when you're unwanted
Streets are uneven when you're down
Em
When you're strange
G                     H
Faces come out of the rain
H
When you're strange
G                     H
No one remembers your name
When you're strange
When you're strange
When you're strange
People are strange when you're a stranger
Faces look ugly when you're alone
Women seem wicked when you're unwanted
Streets are uneven when you're down
When you're strange
Faces come out of the rain
When you're strange
No one remembers your name
When you're strange
When you're strange
When you're strange
When you're strange
Faces come out of the rain
When you're strange
No one remembers your name
When you're strange
When you're strange
When you're strange

Вверх

Riders On The Storm
mp3

                   Words and Music by The Doors
with vib. effect         B(0.25)
|--------|---------|------|------------|------|---------|------|
|--------|---------|------|------------|------|---------|------|
|--------|---------|------|------------|------|---------|------|
|--------|2---2-0-2|------|2-2-2-0-2-0-|------|---------|------|
|--------|---------|------|-----------2|0-----|0-0-0-3-0|------|
|--------|---------|------|------------|------|---------|-0----|
Riders on    riders on         in-to this  in-to this world
the storm    the storm        house were born     were thrown
|---------|--------------|-----------|-------------|-----------|
|---------|--------------|-----------|-------------|-----------|
|---------|--------------|0----------|-------------|-----------|
|2-0------|--------------|2----------|-------------|-----------|
|---2-0---|--------------|3----------|-------------|-----------|
|------3-0|--5-----------|-----------|-0-----------|-(0)-------|
Like a dog    an actor out Riders on     There's a
without a bone   on loan.   on the storm
Rhy.Fig.1
|------------------------|-----------------|-------------------|
|-0-----0---2-----2--3---|-----3--2----2---|-------------------|
|----0---------0---------|--0-------0-----0|--repeat last-two--|
|------------------------|-----------------|-----------bars----|
|------------------------|-----------------|-------------------|
|------------------------|-----------------|-------------------|

killer on the road, his brain is squirming like a toad. Take

|----------7-7-|8-8---10-10-|-----------|----------------------|
|-5--5-----7-7-|8-8---12-12-|0-0-2---2-3|---3-2---2------------|
|--------------|9-9---11-11-|-0----0----|-0-----0--------------|
|--------------|------------|-----------|----------------------|
|--------------|------------|-----------|----------------------|
|--------------|------------|-----------|----------------------|
a long holiday       let your            if you
childern play
(openD)give this man a ride sweet fa(openC)mily will die,
end Rhy.Fig.1
|----------------------|---------------------------------------|
|-0-----0---2------2--3|-----3---2-----------------------------|
|----0---------0-------|--0------------------------------------|
|----------------------|---------------------------------------|
|----------------------|---------------------------------------|
|----------------------|---------------------------------------|
Gotta love your man.  Yeah.
Guitar solo       B(0.5)             B(0.25)
|----------|-------------0|--0-0---|--------------|------------|
|----------|----------0h2-|0----3-0|--------------|------------|
|-------0--|-------0h2----|--------|2--2-0--------|------------|
|2--2-2---2|----0h2-------|--------|------2-2--0--|------------|
|----------|-0h2----------|--------|-------------2|0-0-3-0-----|
|----------|--------------|--------|--------------|------------|

|-----------------0---|----------|-------------|---2----------2|
|-----------2-0-------|----------|-------------|---3----------3|
|------2-0-----2h4--/4|-2-0----/4|-4-2-0-/4---0|---2----------2|
|-2-0-----2-----------|-----2----|-------------|0--0----------0|
|----2----------------|----------|-------------|---------------|
|---------------------|----------|-------------|---------------|

|----0--|------|------|-------------------|--------------------|
|----1--|-0----|-(0)--|--------0h2---2--3-|-(3)----------------|
|----0--|-0----|-(0)--|--4---4-----0------|--------------------|
|--2----|-2----|-(2)--|----5--------------|--------------------|
|--3----|------|------|-------------------|--------------------|
|-------|------|------|-------------------|--------------------|
Verse2:Girl you
With rhy.Fig.1
gotta love your man
Girl you gotta love your man.
Take him by the hand;
make him understand.
The world on you depends, our life will never end.
Gotta love your man.
Rhy.Fig.2
|----12--12---14--14-|--15--15---14--14------------------------|
|----12--12---14--14-|--15--15---14--14------------------------|
|----12--12---14--14-|--16--16---14--14------------------------|
|--------------------|-----------------------------------------|
|--------------------|-----------------------------------------|
|--------------------|-----------------------------------------|
Play Rhy.Fig2 24 times(use it for a model for improvisation)
|-0-----------|--(0)-------|-------------|---------------------|
|-0-----------|--(0)-------|-------------|---------------------|
|-0-----------|--(0)-------|-------------|---------------------|
|-2-----------|--(2)-------|-------------|---------------------|
|-------------|------------|-------------|---------------------|
|-------------|------------|-------------|---------------------|
Play first two bars of Rhy.Fig1 twice
then play all of Rhy.Fig.1 for final verse.
Guitar solo two:      ~~~~~  B1R
|----------------|-------------------|----|--------------------|
|0---0--2-----2h3|-------------------|----|--------------------|
|--0-------0-----|9/11--9/11-9-7-9/11|----|9/11--11-9-7-9------|
|----------------|-------------------|----|--------------------|
|----------------|-------------------|----|--------------------|
|----------------|-------------------|----|--------------------|
B(0.5)R    PB_____R
|-----------------|--------------------|-----------------------|
|-----------------|--------------------|-----------------------|
|(9)-7-6--9--(9)/4|-(4)-6-----(6)---4-6|4---2--4-4----4-(4)----|
|-----------------|--------------------|-----------------------|
|-----------------|--------------------|-----------------------|
|-----------------|--------------------|-----------------------|
B1         B1_________R      B(0.5)________R
|-------|----------------|------------------|------------------|
|-------|----------------|------------------|------------------|
|4---4--|-4--2-------2-4-|-(4)-4--4---2--4--|---(4)-----4------|
|-------|------4---4-----|------------------|------------------|
|-------|----------------|------------------|------------------|
|-------|----------------|------------------|------------------|
Riders on the storm.
|--------------------|---------------|-------------------------|
|--------------------|---------------|-------------------------|
|/11----9---7----9/11|--(11)--119--7|(7)---6--7--6----4--2----|
|--------------------|---------------|-------------------------|
|--------------------|---------------|-------------------------|
|--------------------|---------------|-------------------------|
Riders on the storm.______          Riders on the storm.
B1_____R              B(1.5)_____R
|-------------------|--------------|---------------|-----------|
|-------------------|--------------|---------------|-----------|
|(2)--4--2----2--4-2|-(2)-4-2-4---4|(4)-2--4-2---4-|(4)----4-2-|
|-----------4-------|--------------|-----------4---|-----------|
|-------------------|--------------|---------------|-----------|
|-------------------|--------------|---------------|-----------|

Вверх

Riders On The Storm (2 вариант)
mp3

Em
Riders on the storm
Em
Riders on the storm
Am
Into this house we?re born
Em
Into this world we?re thrown
D
Like a dog without a bone
C
An actor out on loan
Em
Riders on the storm

There?s a killer on the road
His brain is squirmin? like a toad
Take a long holiday
Let your children play
If ya give this man a ride
Sweet family will die
Killer on the road, yeah

Girl ya gotta love your man
Girl ya gotta love your man
Take him by the hand
Make him understand
The world on you depends
Our life will never end
Gotta love your man, yeah

Wow!

Riders on the storm
Riders on the storm
Into this house we?re born
Into this world we?re thrown
Like a dog without a bone
An actor out on loan
Riders on the storm

Riders on the storm
Riders on the storm
Riders on the storm
Riders on the storm
Riders on the storm

bass*

a|---2-----0-4-0-4-|
e|-0---3-0---------|

*-такой басс играется на Em на другие аккоды прото четвертями
к примеру

С:

a|-3-3-3-3-|

и т.д.

Вверх

Spanish Caravan

e|---------0---------0--------------------------0------0-------|
B|-------4---4-------4--------------------------4------4-------|
G|-----4-------4-----4--------------------------4------4-------|
D|---4-----------4---4--------------------------4------4--4----|
A|-2-----------------2-----------------------------------------|
E|-------------------------------------------------------------|

e|-0--0--------0--------0---------0--------0---------0---------|
B|-5----5--------5--------5---------5--------5---------5-------|
G|-5------5--------5--------5---------5--------5---------5-----|
D|-5--------5--------5------------------5------------------5---|
A|-----------------------------3------------------3------------|
E|-------------------------------------------------------------|

e|--------------------0-0-0---0-0-0---3-3-3---2-2-2-----0-0-0--|
B|-------------------------------------------------------------|
G|---0-0-0---0-0-0----------0----------------------------------|
D|---------5--------5---------------5-------5--------5---------|
A|-4-----------------------------------------------------------|
E|-------------------------------------------------------------|

e|----0-0-0-----0-0-0-----0-0-0-----0-0-0----------------------|
B|-------------------------------------------------------------|
G|-------------------------------------------------------------|
D|-----------5-------------------5-----------------------------|
A|-4-------------------4---------------------------------------|
E|-------------------------------------------------------------|

e|----0-0-0-----0-0-0-----0-0-0-----0-0-0----------------------|
B|-------------------------------------------------------------|
G|-------------------------------------------------------------|
D|-----------5---------5---------------------------------------|
A|-3-----------------------------3-----------------------------|
E|-------------------------------------------------------------|

e|-0------0------0-------0------0-------0-------0-------0------|
B|---4------4------4-------4------4-------4-------4-------4----|
G|-----0------0------0-------0------0-------0-------0-------0--|
D|-------4------4------4--------------4-------4-------4--------|
A|2----------------------------2-------------------------------|
E|------------------------------------------------------------2|

e|-0--------0--------0--------0--------------------------------|
B|---4--------4--------4--------4------------------------------|
G|-----0--------0--------0--------0----------------------------|
D|-------4--------4--------4-----------------------------------|
A|-------------------------------------------------------------|
E|-------------------------------------------------------------|

e|---0-------0-------0-------0------0------0------0------0-----|
B|-----4-------4-------4-------4------4------4------4------4---|
G|-------0-------0-------0-------0------0------0------0------0-|
D|---------4---------------4-----------------------------------|
A|-3---------------3---------------2------0--------------------|
E|-----------------------------------------------3------2------|

e|----0--------------------------------------------------------|
B|----1--------------3--2-----------0--------------------------|
G|----0--------------------------------------------------------|
D|----2-----2--1--0-----------------7--------------------------|
A|----3--------------------3-----------------------------------|
E|-0-----3--------------------3/7------------------------------|

Вверх

This Next part is where the Harpsichord starts

e|------------------|------------------------------------------|
B|-0--1-----0-------|----12--13------12------------------------|
G|-------2-----0----|------------14------12--14--11--12--11----|
D|------------------|-2----------------------------------------|
A|------------------|------------------------------------------|
E|------------------|------------------------------------------|

e|------------------------------|------------------------------|
B|----0------0-----0-----0----0-|---0----0------0---0---0----0-|
G|------------------------------|------------------------------|
D|-9-----10-----7-----9---------|------9----10----7---9--------|
A|-------------------------10---|-7-----------------------10---|
E|------------------------------|------------------------------|

e|-------------------------------------------------------------|
B|---0-----0------0-----0-----0------0-----0-----0-----0-----0-|
G|-------------------------------------------------------------|

D|------9-----10-----7-----9------------7----------------------|
A|-7-----------------------------10-----------9-----10----7----|
E|-------------------------------------------------------------|

e|--------------12---------------------------------------------|
B|--------15----------13----15----12---------------------------|
G|-------------------------------------------------------------|
D|--14---------------------------------------------------------|
A|-------------------------------------------------------------|
E|-------------------------------------------------------------|

e|-------------12----------------------------------------------|
B|-------15----------13----15----12----------------------------|
G|-12----------------------------------------------------------|
D|-------------------------------------------------------------|
A|-------------------------------------------------------------|
E|-------------------------------------------------------------|

e|-------------12----------------------------------------------|
B|-------15----------13----15----12----------------------------|
G|-12----------------------------------------------------------|
D|-------------------------------------------------------------|
A|-------------------------------------------------------------|
E|-------------------------------------------------------------|

e|-------------------------------------------------------------|
B|-----0-----0------0-----0-----0------0-----------------------|
G|-------------------------------------------------------------|
D|--------9-----10-----7-----9---------------------------------|
A|--7------------------------------10--------------------------|
E|-------------------------------------------------------------|


e|-------------------------------------------------------------|
B|-----0-----0------0-----0-----0------0-----------------------|
G|-------------------------------------------------------------|
D|--------9-----10-----7-----9---------------------------------|
A|--7------------------------------10--------------------------|
E|-------------------------------------------------------------|

e|-------------------------------------------------------------|
B|-----0-----0------0-----0-----0------0-----------------------|
G|-------------------------------------------------------------|
D|--------9-----10-----7-----9---------------------------------|
A|--7------------------------------10--------------------------|
E|-------------------------------------------------------------|

e|--------------------------|----------------------------------|
B|-13------12---------------|----------------------------------|
G|-----14------12--11-------|--11--12--14--11--12--------------|
D|---------------------14---|----------------------------------|
A|--------------------------|----------------------------------|
E|--------------------------|----------------------------------|

e|-------------------------------|-----------------------------|
B|----12-------------------------|------------10---------------|
G|14-----14--12--11--12--14--12--|-9--11--12------9--12--------|
D|-------------------------------|-----------------------------|
A|-------------------------------|-----------------------------|
E|-------------------------------|-----------------------------|

e|-------------------------------------------------------------|
B|----0-----0------0-----0------0-----0------------------------|
G|-------------------------------------------------------------|
D|-7-----------------------------------------------------------|
A|-------9-----10-----7-----10-----8---------------------------|
E|-------------------------------------------------------------|

e|-------------------|-------------------|---------------------|
B|-------------------|-------------------|---------------------|
G|--------4--------4-|--------4--------4-|--------3--------3---|
D|-----4--------4----|-----4--------4----|-----2--------2------|
A|--2--------2-------|--2--------2-------|--3--------3---------|
E|-------------------|-------------------|---------------------|

e|-----8--7------7----------|----------------------------------|
B|-10--------10-----10--8-7-|----7--------7--------------------|
G|--------------------------|-9-----7--9-----9-----------------|
D|--------------------------|----------------------------------|
A|--------------------------|----------------------------------|
E|--------------------------|----------------------------------|

e|--------------7-----------|----------------------------------|
B|-7--8--10--8-----10--8--7-|---------5--------5---------------|
G|--------------------------|-----6--------6-------------------|
D|--------------------------|-7--------7-----------------------|
A|--------------------------|----------------------------------|
E|--------------------------|----------------------------------|

e|--------------------------|----------------------------------|
B|--------------------------|----------------------------------|
G|---------3-----------3----|---------4-----------4------------|
D|-----2-----------2--------|-----4-----------4----------------|
A|-3-----------3------------|-2-----------2--------------------|
E|--------------------------|----------------------------------|

e|--------------------------|---------5---------------5--------|
B|--------------------------|-5---------------7---8------------|
G|---------4-----------4----|-----5-------5-------5------------|
D|-----4-----------4--------|-----------------5-------5--------|
A|-2-----------2------------|----------------------------------|
E|--------------------------|-5--------------------------------|

e|--------------5-------5---|-6-------6---10---8---6-----------|
B|---5--7---8-------8-------|-----8--------------------10------|
G|-7------------------------|----------------------------------|
D|--------------------------|----------------------------------|
A|--------------------------|----------------------------------|
E|--------------------------|----------------------------------|

e|-8------8---10---12--10-8-|----------13---8------------------|
B|-----7--------------------|------9------------9--------9-----|
G|--------------------------|-10--------------------10---------|
D|--------------------------|----------------------------------|
A|--------------------------|----------------------------------|
E|--------------------------|----------------------------------|

e|--------5-----------------|---------3---------------3--------|
B|-7--------------7---------|-----------------5---6------------|
G|----7---------------7-----|-----3-------3--------------------|
D|-7----------7-----------5-|-----------------3-------3--------|
A|----------------5---------|----------------------------------|
E|--------------------------|-3--------------------------------|

e|---------3----------------|---------1---------------1--------|
B|-5--------------5---------|-----------------3---4------------|
G|-----5------5-------5-----|-----1-------1--------------------|
D|--------------------------|-----------------1-------1--------|
A|-3--------------3-------3-|----------------------------------|
E|--------------------------|-1--------------------------------|

e|-----------10-------------|--9-----------9-----14------------|
B|-11-----11-----11------11-|----------10------------------10--|
G|----10-------------10-----|------11-----------------11-------|
D|--------------------------|----------------------------------|
A|--------------------------|----------------------------------|
E|--------------------------|----------------------------------|

e|--------------------------|----------------------------------|
B|-12-----------------------|--(12)----------------------------|
G|--------------------------|----------------------------------|
D|--------------------------|----------------------------------|
A|--------------------------|----------------------------------|
E|--------------------------|----------------------------------|

e|---------1----------------|---------2---------------2--------|
B|-3--------------3--3------|-----------------4---5------------|
G|-----3-------3------------|-----2-------2--------------------|
D|-----------------------3--|---------------------2------------|
A|-1--------------1---------|----------------------------------|
E|--------------------------|-2--------------------------------|

e|--------------------------|----------------------------------|
B|-4------------------------|-(4)------------------------------|
G|-4------------------------|-(4)------------------------------|
D|-4------------------------|-(4)------------------------------|
A|-2------------------------|-(2)------------------------------|
E|--------------------------|----------------------------------|

Em       Am       B7        Em
Carry me caravan, take me away
Em         Am        B7          Em
Take me to Portugal, take me to Spain
Am    Em        B7/F#              Em
Andalusia, with fields full of grain
Am        Em       B7/F#       Em
I have to see you again and again
Em                 D7sus2     D7 D7sus4 D7    D7sus2   C
Take me Spainish caravan, yes I  know   you   can.

Вверх

Universal Mind

Am
I was doing time
In the universal mind
G
I was feeling fine
Am
I was turning keys
I was setting people free
G
I was doing all right

Em
Then you came along
With a suitcase and a song
A
Turned my head around
Am
Now I?m so alone
C
Just looking for a home
E
In every place I see

Am Dm
I?m the freedom man
E           Am Dm
I?m the freedom man
E           Am Dm
I?m the freedom man
E           Am E
That?s how lucky I am

Вверх

Yes, The River Knows

A                 F
Please believe me
B
The river told me
Bm
Very softly
F#
Want you to hold me.


E    Dm   C    E      Am
Free fall flow river, flow
G      F     E    E
On and on it goes
Dm    C     E        Am   G   Am   Bm
Breathe under water till the end


E    Dm   Am   G      Am
Free fall flow river, flow
G      F     E   Am
On and on it goes
G7    Am    E7       A
Breathe under water till the end

Yes the river knows

E7+  D7+

E7+
Please believe me
D7+
If you don?t need me
F#m                        Bsus4  B7
I?m going  but I need a little time
F#m            C#m
I promised I would drown myself
G#m           C#m
In mystic heated wine


Please believe me
The river told me
Very softly
Want you to hold me

I?m going but I need a little time
I promised I would drown myself
In mystic heated wine

Free fall flow river, flow
On and on it goes
Breathe under water till the end

Free fall flow river, flow
On and on it goes
Breathe under water till the end

Вверх