Scorpions

Always Somewhere
Ave Maria No Morro
Born To Touch Your Feelings
Destin
Destin (2 вариант)
Does Anyone Know?
Eye To Eye
Holiday
Lady Starlight
Let me take you far away
Life Is Too Short
Living for tomorrow
Lonely Nights
Lonely Nights (2 вариант)
No One Like You
No Pain, No Gain
Now!
Send Me An Angel
Send Me An Angel (2 вариант)
Still Loving You
The Sails of Charon
Under the same sun
Walking On The Edge
When The Smoke Is Going Down
When You Came Into My Life
Where The River Flows
White Dove
Wind Of Change
You And I
Вверх

Always Somewhere

        c               G                D        Em
1.-----|-------0-----0-|-------3-----3-|---2----|---0----|-
2.-----|-1-------1-----|---0-----0-----|-----3--|-----0--|-
3.-----|---0-------0---|-----0-----0---|-------2|-------0|-
4.-----|-----2---------|-------0-------|--------|--------|-
5.0-2-3|---------------|---------------|-0------|-2------|-
6.-----|---------------|-3-------------|--------|--------|-

Am
--0-----0---|
----1-----1-|
------2-----|
------------|
0-----------|
------------|

КУПЛЕТЫ:
(arrive    at      seven        the place feels
c               G                D        Em
1.-----|---------------|----------------|--------|--------|-
2.-----|-1-----1-----1-|---0-----0-----0|---3----|---0----|-
3.-----|---0-----0-----|-----0-----0----|-----2--|-----0--|-
4.-----|-----2-----2---|-------0-----0--|-------0|-------2|-
5.0-2-3|---------------|----------------|-0------|-2------|-
6.-----|---------------|-3--------------|--------|--------|-
good)
Am
-----------|
--1-----1--|
----2-----2|
------3----|
0----------|
-----------|

С          G           D    Em    Am   -----
Arrive at seven, the place feels good
No time to call you today
Encores till eleven then Chinese food
Back to the hotel again

(проигрыш)

I call your number, the line ain?t free
I?d like to tell you come to me
And life without you seems like a lost dream
Love, I can tell you how I feel


припев:  (без перебора)
С       G
Always somewhere
Am                  F
Miss you where I?ve been
F         G                C     G
I?ll be back to love you again


Another morning, another place
The only day off is far away
But every city has seen me in the end
And brings me to you again

Вверх

Ave Maria No Morro

C             C7    F                fm
Ave Maria del monte preciosita, chiquitita
C                   G             C
es el morro de los negros la mansion.
C7                          F
Extrano mundo tan desgraciada y tan sencilla,
fm          C            G            C
ni siquiera una capilla te aprovecha para rezar.
C
C        F
Pero si vive en Tierra y Cielo y [cambiara]
fm           C               G               C
y la noche con su manto cubre las losas que van a amar


Chorus:

F                   C          G         C
Alla  se escucha, al fin del dia una plegaria Ave Maria
fm                  C       G
Alla  se escucha, al fin del dia una plegaria
C * G
Ave Maria
F fm E
Ave Maria
F                        C
Aunque no tenga capilla, reza la gente sencilla
G F C
Ave Maria

Repeat Chorus:

(last Ave Maria is:)
G F C FC F C
Ave Maria

Вверх

Born To Touch Your Feelings

Intro.

Verse 1.
Riff 1.
I was born from the sound of the strings
For someone to give everything
Riff 2a
To be a song just for your fealings.

Riff 1.
Close your eyes and I?ll try to get in
To waken your heart like the spring
Riff 3.
?Cause I was born to touch your fealings.

Verse 2.
(Music is the same but instead Riff 2a, play Riff 2b)

Steal the time, take a song and be glad,
Be free as the birds, dont be sad,
Your time will come i?ll make you feel it.

You?re still young like the sun after rain,
Follow the light, it?s not in vain,
And you will see i?ll touch your fealings.

Tidi-daraida-daram (along with the second part of Riff 3)

Chorus:
H                 Gb
You?ve got your songs
Dbm
They are everyday
Abm
For awhile
Gb
Just the only way
Abm  E Gb H
To feel all right     (2 times)
Riff 4.

Verse 3.

You were born just to lose or to win
To be someone?s chime in the wind
To live between your mind and fealings.

Find your way check it out, learn each day,
Follow the light, its not in vain
And you will see I?ll touch your fealings.

Tidi-daraida-daram.

Chorus (4 times).
(Dont play Riff 4 this time.)
Outro.
-----------------------2. THE MUSIC--------------------------------------

This song is played in Ab-moll. But Scorpions changed the tuning of
their guitars like this:

Eb|
Bb|
Gb| (As you see they have lowered a pitch of their strings onto one
Db|  semi-tone.)
Ab|
Eb|

So they?re playing in Abm while using application of Am. You cam change
your tuning too, if you want, and if you don?t, you can play this song
in Am like I?m doing. I wrote all the accords correctly, in Abm. If you
want to find out how ?ll it be looking in Am then you can use the table
below.

Abm   - Am
Edim  - Fdim
Eb    - E
Gb    - G
B     - C
A     - Bb
E     - F

And the music, which is wrote with the numbers will be correct anyway:
on the normaly tuned guitar it will be in the Am, and on the guitar with
changed tuning it will be in the Abm.

Intro.
Abm (5th fret), Edim (3rd fret), Eb (1st fret), Abm (5th).
Abm (5), Edim (3), Eb (1), Abm (5), Gb (3), B (3), A (1).
Abm (8), Eb7 (7), Abm (5).

Riff 1.

1|----5-----5-----5-----5--|------------------------|
2|--5--5--5--5--5--5--5--5-|---5-----5-----5-----5--|
3|---5--5--5--5--5--5--5--5|-7--7--7--7--7--7--7--7-|
4|-7-----------7-----------|--6--6--6--6--6--6--6--6|
5|-------7-----------7-----|7-----7-----7-----7-----|
6|-------------------------|------------------------|

1|----0-----0-----0-----0--|
2|--0--0--3--3--3--3--3--3-|
3|---1--1--1--1--1--1--4--4|
4|-------------0-----6-----|
5|-2-----2-----------------|
6|-------------------------|

Riff 2a                         Riff 2b
1|----5-----0-----1-----0--|    1|----5-----0-----0-----0--|
2|--5--5--3--3--1--1--5--5-|    2|--5--5--3--3--1--1--5--5-|
3|---5--5--4--4--2--2--4--4|    3|---5--5--4--4--2--2--4--4|
4|-7-----------------------|    4|-7-----5-----3-----2-----|
5|-------5-----3-----2-----|    5|-7-----5-----3-----2-----|
6|-------------------------|    6|-------------------------|

Riff 3.(I know, its not correct, but its very hard to play this thing
correctly, because it?s played on several guitars. If you?re
skillful enough to play ANYTHING, then you won?t need my
consulting you how to play this song at all.)
1|----(5875)---(7107)----(812118)---|---0-----0-----5---|
2|--5--------5--8-------8---8----------8--11|-5--5--5--5--5--5--|
3|---5-----------7-----------9------------10|--5--5--4--4--5--5-|
4|-7-----------9----------10--------------8 |7-----2-----------7|
5|------------------------------------------|7-----2-----7------|
6|------------------------------------------|------------5------|

Riff 4.
arp         arp        arp       arp
1|------7-5-------7-8-10-----8-10-12--10--|
2|---10-----------8----------8--------11--|
3|---9------------7----------9--------10--|
4|--10----------------------10--------12--|
5|----------------------------------------|
6|----------------------------------------|

arp       arp     arp arp     arp
,^-----,
1|--13--12----10-8--7--------7--8---|
2|--10---------9-9--9--9--10------10|
3|--9----------9-9--9--7--9-------9-|
4|-10------------------9--10-----10-|
5|----------------------------------|
6|----------------------------------|

arp - means you should play your strings quickly one by one
(may be with the mediator).

OUTRO
___________________________________
Eb_Ab_Db_Gb_Bb_Eb |
6  5  4  3  2  1  |
|__|__|__|__|__|  |
------------------ |
Abm (5th fret)   5  7  7  5  5  5  |
------------------ |
E (5)            5  8  7  5  6  5  |
------------------ |
Gb (7)           7  10 9  7  8  7  |
------------------ |
Abm (7)          x  7  7  9  10 7  |
___________________________________|

Play accords from the frame above one time: Abm E Gb Abm, with the
right-hand method similar
to Riff 1.

Then bass change (chords are the same*):
xxxxx xxxxx xxxxx xxxxx xxxxx xxxxx xxxxx xxxxx  > 1,2,3 strings.
4|-------7-----------7-----------5-----------7-----|
5|-------------8-----------5-----------0-----------|
6|-5-----------------------------------------------|
_________________________________________________________________________
* NOTE: The same, exept Gb (7) and fourth accord in this musical
phrase - Abm (7):

Gb:     x  5  5  7  8  7
Abm:    x  0  7  9 10  7
_________________________________________________________________________

After the second time solo comes:

Abm   E   Gb              Abm
,-----------^---------------------------,

1|-----|----|----|-----------8/78----12/1012----17/1517|
2|---10|--10|--12|10/810---------------------------------|
3|-----|----|----|----------------------------------------|
4|-7---|7---|9---|----------------------------------------|

Вверх

Destin

Em       Am               C                        D
Do you say a prayer when your feeling down
Em       Am                   C                         D
Do you believe that love can turn your faith around
You?re feeling high and low, but you don?t know what to think
The world is full of saints who live their lives in sin

Don?t ask the mirror ball you better ask yourself
I think you know the answers but maybe you can?t tell
You?ll see it all so clear just take a look inside
The judge you build inside your heart will always be your guide

Am     F                Em
Mon destin inscrit en toi
Mon destin inscrit en toi

Mon destin inscrit en toi
Mon destin inscrit en toi

Another day goes by and so does your life
You try to make some sense before your time to die
If you feel humility for something that is true
You?ll find the secrets of this life deep inside of you

Mon destin inscrit en toi
Mon destin inscrit en toi
Mon destin inscrit en toi
Em                    F                 Am
The innocent won?t feel the judgement day

Mon destin inscrit en toi
Mon destin inscrit en toi
Mon destin inscrit en toi
The innocent won?t feel the judgement day

Mon destin inscrit en toi
Mon destin inscrit en toi
Mon destin inscrit en toi
The innocent won?t feel the judgement day

Вверх

Destin (2 вариант)

G#m      F#           E                 F#
Do you say a prayer when your feeling down
Do you believe in love can turn your faith around
To feeling high and loved you don?t know what to think
The world is full of saints for living life?s insane

Don?t ask a mirror ball you better ask yourself
I think you know the answers but maybe you can tell
You see it all so clear just take a look inside
The judge you build inside your heart will always be your died

H    G                 A
Mon destin inscrit en toi
Mon destin inscrit en toi


Another day goes by and so does your life
You try to make some sense before your time to die
If you feel humility for something that is true
You find the secrets of this life deep inside of you

Mon destin inscrit en toi
Mon destin inscrit en toi
Mon destin inscrit en toi
G                      G#
The inner sense won?t feel
F
The judgement day


Соло: G#m F# E F#

Mon destin inscrit en toi
Mon destin inscrit en toi
Mon destin inscrit en toi

The inner sense won?t feel
The judgement day

Mon destin inscrit en toi
Mon destin inscrit en toi
C#   A#                B
Mon destin inscrit en toi

Вверх

Does Anyone Know?

1) Intro
Gtr.1(acoustic): plays Rhy.Fig.1

2) 1st Verse
Gtr.1 and Gtr.2(acoustic): plays chords written in vocal part
Vocal:
F                        Dm
Is this world out of control
Am            G
Say what is right what is wrong
F                        Dm
Do I know this world at all
Am             G
I think I do but then I don?t

3) Gtr.1: plays Rhy.Fig.2
Gtr.2: plays Chords written in vocal part
Vocal:
E                       Am
I?m confused by what I see
Dm
I try to understand
C                 G
But it makes no sense at all
E                       Am
I?m confused by what I feel
Dm
I thought that our love
C                 G
Was something that is real

4) Chorus
Gtr.1: plays Rhy.Fig.3A then Rhy.Fig.3B
Gtr.2: plays chords written in vocal part
Vocal:
Does anyone...
C     Em       Am
kno-o-o-o-o-o-ow
Am7                 Dm
The truth we?re looking for
Dm7        G
Can?t find it anymore
Does anyone...
C     Em       Am
kno-o-o-o-o-o-ow
Dm
How to make me feel
Dm7               G
For something that is real

5) 2nd Verse
Gtr.1 and Gtr.2: plays chords
Gtr.3(acoustic): plays Rhy.Fig.4 2 times (in original playing on keyboards)
Vocal:
F                        Dm
So many things that I recall
Am                 G
When we were young just flying high
F                        Dm
Can we turn our fate at all
Am                G
I wish we could say don?t you cry

6) Gtr.1: plays Rhy.Fig.2
Gtr.2: plays chords
Vocal:
E                       Am
I?m confused by what I hear
Dm
Girl it seems to me
C            G
We?re losing after all
E                       Am
I?m confused by what I feel
Dm
I thought that our love
C                 G
Was something that is real

7) plays order 4

8) Bridge
Gtr.1 and Gtr.2: plays Chords
Vocal:
Dm               Am
Another day has just begun
F                        G
Life goes on there?s no return
Dm              Am
How can I trust anyone
F                       G
When honesty is such a dirty word

9) Solo
Gtr.1 and Gtr.3: plays their things like in order 5,
then Gtr.1 and Gtr.2: plays chords from order 6
Gtr.4: plays Rhy.Fig 5

10)Chorus
Gtr.1: plays Rhy.Fig.3A 4 times
Gtr.2(distortion): plays chords written in vocal part
Vocal:
Does anyone...                  |
C     Em       Am                |
kno-o-o-o-o-o-ow                |
Am7                 Dm      |
The truth we?re looking for     |
Dm7        G              |
Can?t find it anymore           | 2 times
Does anyone...                  |
C     Em       Am                |
kno-o-o-o-o-o-ow                |
Dm               |
How to make me feel             |
Dm7               G         |
For something that is real      |

11) Outro
Gtr.1: plays Rhy.Fig.3A
Gtr.2: plays Theme of Chorus
Gtr.4: plays Rhy.Fig.6

Repeat order 11 and fading out...


Chord fingerings:

EADGbe      EADGbe      EADGbe      EADGbe      EADGbe
F 133211    G 320003   Am x02210   Dm x00231    E 022100

EADGbe      EADGbe      EADGbe      EADGbe
C 332010   Em 022000  Am7 302210  Dm7 x30230



Rhythm figures:

1.
C       Em      Am      Am7     D
e:-------0---------------0---------------3-----2----
b:---------------2---------------1-----3---3---3----
G:-----0-------0-------2-------2-----2---------2----
D:---2-------2-------2-------2-----------------0----
A:-3-------2-------0--------------------------------
E:-------------------------3-------2----------------

2.
E           Am          Dm      C         G
e:-------0-----------0-------1-------0-------------------
b:-0---0-------1---1-----------3-------1-----3-----------
G:-1-1---------2-2---------------2-------0---4-----------
D:-2-----------2-----------0-----------------5-----------
A:-2-----------0-------------------3---------5-----------
E:-0-----------------------------------------3-----------

E           Am          Dm      C         G
e:-------0-----------0-----------------------------------|
b:-0---0-------1---1-----------3-------1-----3-----------|
G:-1-1---------2-2-----------2---2---0---0---4-----------|
D:-2-----------2-----------0-----------------5-----------|
A:-2-----------0-------------------3---------5-----------|
E:-0-----------------------------------------3-----------|

3A.
C       Em     Am      Am7     Dm      Dm7     G
e:-------------------------------------------0-----------3-------
b:--------1------0-------1-------1-----3-------3-------0---0-----
G:------0------0-------2-------2-----2---2-------2---0-------0---
D:----2------2-------2-------2-----0---------------------------0-
A:--3------2-------0-----------------------3---------------------
E:-------------------------3-----------------------3-------------

3B.
C       Em     Am      Am7     Dm      Dm7     G
e:-------------------------------------------0-------------------|
b:--------1------0-------1-------1-----3-------3---0-------------|
G:------0------0-------2-------2-----2---2-------2-0-------------|
D:----2------2-------2-------2-----0---------------0-------------|
A:--3------2-------0-----------------------3-------2-------------|
E:-------------------------3-----------------------3-------------|

4.
F               Dm              Am              G
e:---------------------------------0---0---0---0-------------------
b:-1---1---1---1---1---1---1---1-------------------3---3---3---3---
G:---2---2---2---2---2---2---2---2---2---2---2---2---0---0---0---0-
D:-----------------------------------------------------------------
A:-----------------------------------------------------------------
E:-----------------------------------------------------------------

5.
F               Dm
e:-----------------------------------------------8-----------------
b:-------------------------------5-------5-6/----------------------
G:-4-------4-5-----4-5-7---4-5-7-----5-7-------------97-5/7-------
D:-----5-7-------7-------------------------------------------------
A:-----------------------------------------------------------------
E:-----------------------------------------------------------------

Am              G               F               Dm
e:----------------------------------5-7-8------5------------------
b:-----5----------------------------------8/----------5/6-----6/10
G:------54----4----------------3/5-----------------------7-------
D:------------------0---------------------------------------------
A:--------------------3-3/5---------------------------------------
E:----------------------------------------------------------------

Am                           G                             E
e:--10-15-12----10/12---15---1210--8/10----10---12---10-------------12-10-
b:------------------------------------------------------13-12---9-12-------
G:------------------------------------------------------------9------------
D:-------------------------------------------------------------------------
A:-------------------------------------------------------------------------
E:-------------------------------------------------------------------------

Am                   Dm            C               G
e:--17-12/8-10---8----8-------12-------------------------------------------
b:-----------------12---10-------8-10---10-8-7-----------------------------
G:---------------------------------------------9---5-7---7-5-4-7-----------
D:-------------------------------------------------------------------------
A:-------------------------------------------------------------------------
E:-------------------------------------------------------------------------

6.
C       Em      Am      Am7     Dm     C     G
e:------8------7-------5------3-5-------5----------------------------
b:--5-------5-------5-------5----865-------8-5-----------------------
G:----------------------------------7------------7-------4-5-7-4-5-7-
D:---------------------------------------------------5-7-------------
A:-------------------------------------------------------------------
E:-------------------------------------------------------------------

Вверх

Eye To Eye

C			 Am
A live begins another?s over
C                    Am
As another day begins
C				Am
Life runs full circle getting older
F
It happens to me
Dm          G
It happens to you


I do believe you?re still around me
You?re still around me all the time
I have no doubt one day in heaven
I will see you again
Dm        G    C*       G*
I?ll see you again, see you again

С		Am
Break the bread drink the wine
C		   Am
In my heart you?ll live forever
C                  Am
The time to go is never right
Dm
When we say goodbye

C	             Am
While we?re here we shouldn?t waste
C		  Am
A day in life to say I love you
C                      Am
It?s now that I?d just wish so much,
Dm
to see you
Am
Eye to eye

When you came home the war was over
So many years before my time
I was so proud the day you told me
You havn?t hurt anyone
No one

Break the bread drink the wine
In my heart you?ll live forever
The time to go is never right
When we say goodbye

While we?re here we shouldn?t waste
A day in life to say I love you
It?s now that I?d just wish so much
to see you
Eye to eye

*тут можно C брать с баррэ на 8-м:
8 8 9 10 10 8 (e-E),
а G на 6-м:  7 8 7 6  6  x (e-E).
==================================================

Следующий ритмический рисунок
можно играть в куплетах в конце
каждой строки, заканчивающейся Am
(^-движение правой руки вверх по струнам
от 6-й к 1-й, v-соответственно, вниз):

^  ^  ^ v  v  v ^  ^
e|--0--0--0-0--0--0-0--0--|-
H|--1--1--1-0--0--0-1--1--|-
G|--2--2--2-2--2--2-2--2--|-
D|--2--2--2-2--2--2-2--2--|-
A|--0--0--0-0--0--0-0--0--|-
E|--0--0--0-0--0--0-0--0--|-

==================================================

Перевод:

<<<<<<<С глазу на глаз>>>>>>>>

Жизнь начинается, когда завершается другая,
Как начинается новый день.
Жизнь делает полный круг, становясь старше.
Это происходит со мной,
Это происходит с тобой.

Я полагаю, вы ещё рядом со мной,
Вы рядом со мной всё время.
Я не сомневаюсь, что в один день в раю
Я увижу вас снова,
Я увижу вас снова, увижу вас снова.

Ломайте хлеб, пейте вино -
В моём сердце вы будете жить всегда.
Время уходить никогда не право,
Когда мы говорим до свидания.

Мы здесь не должны сидеть сложа руки -
Один день в жизни, чтобы сказать: "Я люблю вас".
И теперь я желаю многого - увидеть вас
С глазу на глаз.

Когда вы пришли домой, война была завершена,
За много лет до моего времени.
Я был горд до дня, когда вы рассказали мне, что
Вы не навредили никому,
Никому.

Ломайте хлеб, пейте вино -
В моём сердце вы будете жить всегда.
Время уходить никогда не право,
Когда мы говорим до свидания.

Мы здесь не должны сидеть сложа руки -
Один день в жизни, чтобы сказать: "Я люблю вас".
И теперь я желаю многого - увидеть вас
С глазу на глаз.

Вверх

Holiday

Solo:
1|-------------------------------3h5-3---------------------|
2|----------------3-3-5-6-3-5-6-5-----6-5-3-3-5-6-5-6-5-3--|
3|---0p2-----0-0p2-------------------------2-------------0-|
4|--3---5-2-3---------------------------------------------2|
5|-5-------------------------------------------------------|

1|----------------------3-4h5~-----------------------------|
2|---------------3-3-5-6-----------------------------------|
3|----1h2---1h2-2-2----------------------------------------|
4|-3-5---5-3---0-------------------------------------------|
5|---------------------------------------------------------|

Вверх

Lady Starlight

e---5-------5-----5------3---------5-----5--5--5--
H-----7-------7----6-------3---------5----5--5--5-
G-------6-------6---7--------4---------6---6--6---
D-0-------0------------5-------5_7----------------
A-------------------------------------------------
E-------------------------------------------------
(5_7 = slide from 5 to 7)

Dmaj7
Walk through winternight
G      A
looking the stars  passing time
Dmaj7
Dream about the summerdays
G       A
loving you so  and lonely pains

G         Bm            G               A
I see the stars they?re miles and miles away
Dmaj7                G            A
like our love of one of these lovely winternights

Dmaj7
Dreaming through winternight
G       A
memories of you  of passing by
Dmaj7
Seems to me like yesterday
G     A
I think you do  I couldn?t stay

I see ...
D
like our love
C                  D           C
lady starlight  help me to find  my love
D                  C
lady starlight  help me tonight
D           C
help me to find  my love
(* in this part it is best to use barre chords to make it sound real *)

Walk ...

Dmaj7
Snow touches with the wind
G        A
I wish I could be  with you again

I see ...

Вверх

Let me take you far away

Dm
Let me take you far away
C       A    Dm
Youd like a holiday
Dm
Let me take you far away
C       A    Dm
Youd like a holiday

C                Dm
Exchange the cold days for the sun
G              A
Good times and fun
Dm
Let me take you far away
C       A    Dm  Dm7 Dm6 A4 A
Youd like a holiday

Dm
Let me take you far away
C       A    Dm
Youd like a holiday
Dm
Let me take you far away
C       A    Dm
Youd like a holiday
C                 Dm
Exchange your troubles for some love
G        A
Wherever you are
Dm
Let me take you far away
C       A    Dm  Dm7 Dm6 A4 A
Youd like a holiday

Dm
Longing for the sun you will come
C              Bb
To the island without name
Dm
Longing for the sun be welcome
C           Bb              Dm
On the island many miles away from home
C              Bb
Be welcome on the island without name
Dm
Longing for the sun you will come
C           Bb              Dm   C  Bb
To the island many miles away from home.


Chord fingerings:

EADGbe      EADGbe      EADGbe      EADGbe       EADGbe       EADGbe
Dm X00231    C X32010   A  002220   G  320003   Dm7 X30231   Dm6 X10231

EADGbe      EADGbe      EADGbe
A4 002230   A 002255   Bb 113331


Picking:

Dm                         C                         A
e -------1--------1--------1--|-----0--------0-----------|----0-----0------0---
----------3--------2--------|--------1--------1--------|------2-----2--------
-------------2--------3-----|-----------0--------------|--------2-----2------
----0-----------------------|--------------------------|---------------------
----------------------------|--3------------------3--2-|-0-------------------
E ----------------------------|--------------------------|---------------------

C                          G
e -------0--------0--------0--|-----3--------3--------3---
----------1--------1--------|--------0--------0---------
-------------0--------0-----|-----------0--------0------
----------------------------|---------------------------     .......
----3-----------------------|---------------------------
E ----------------------------|--3------------------------


The Dm-Dm7-Dm6-A4-A interlude:

Dm                          Dm7                        Dm6
e ---- 1--------1--------1--|-----1--------1--------1--|----1-----1------1-----
--------3--------3--------|--------3--------3--------|------3-----3----------
-----------2--------2-----|-----------2--------2-----|--------2-----2--------
--0-----------------------|--------------------------|-----------------------
--------------------------|--3-----------------------|--1--------------------
E --------------------------|--------------------------|-----------------------

A4                          A
e -----0--------0--------0--|-----5--------5--------5---
--------3--------3--------|--------5--------5---------
-----------2--------2-----|-----------2--------2------
--------------------------|---------------------------
-0------------------------|--0------------------------
E --------------------------|---------------------------

Вверх

Life Is Too Short

                  Am
Have you ever seen the morning
G
When the sun comes out the shore
Am                     G
And the silence makes the beauty for a sound
C
Have you ever sat awaiting
G
For the time to stand still
Am                    G
For all the world to stop from turning around

C
And you run
G            Am
?Cause life is too short
And you run
?Cause life is too short

Have you ever seen the glowing
When the moon is on the rise
And the dreams are close to the ones that we love
Have you ever sat awaiting
For heaven to give a sign
So we could find the place where angels come from

And you run
?Cause life is too short
And you run
?Cause life is too short
And you run
?Cause life is too short
And you run
?Cause life is too short

F
There?s a time that turns
C
Turn back time
G           Am
But I don?t say: "I can"
F            G              Am
And only words if you believe in the truth

F
There?s a time to live
C
And a time to cry
G            Am
But if you?re by my side
F              C
I will try to catch a star
F           C              G
I?ll try to catch a star just for you

And I run
?Cause life is too short
And I run
?Cause life is too short
And I run
?Cause life is too short
And I run
?Cause life is too short
...too short
...too short
Life is too short
...too short
Yeah, ...too short
...too short

Вверх

Living for tomorrow

Вст.:Em Em Em G G
I'm still living for tomorrow
I'm living for today
Em  D  Em  Am  Em  D  Em Em
Em
Let's make this world
D                    Em  Am
A better place to live
Em  D
Stop to take
Em           Em
Start to give

Love's got the power
To get it done
To stop the pain
Of a killing gun
G                   Am
And even if you say
C                  D              D
We're gonna die today
Em              C
I'm still living for tomorrow
Em              C
I'm living for today
Em                  Hm
Cause love will find a way my friend
C                D
Whatever it will take

I'm still living for tomorrow
I'm living for today
Why don't we try today my friend
To make this world a better place

Let's make this life
A better life to live
Stop to hate
Learn to forgive

Evil power can kill
The human race
If we give life
A human face (a human face)

And even if you say
We're gonna die today
I'm still living for tomorrow
I'm living for today
Cause love will find a way my friend
Whatever it will take

I'm still living for tomorrow
I'm living for today
Why don't we try today my friend
To make this world a better place (a better place)

And even if you say
We're gonna die today
I'm still living for tomorrow
I'm living for today
Cause love will find a way my friend
Whatever it will take

I'm still living for tomorrow
I'm living for today
Why don't we try today my friend
To make this world a better place

I'm still living for tomorrow

Вверх

Lonely Nights

        Am             Fmaj   Dm E
Since you're gone
Am            Fmaj   Dm E
There is an the empty space
Am            Fmaj   Dm E
Since you'rr gone
Am            Fmaj   Dm E
The world is not the same

Am                 Dm
I go back to the places we've been
G               C     E
It feels like you're still there
Am           Dm
I live on those moment again
G                E
Wishing you were here

Since you're gone
There is a lonely heart
Since you're gone
Nothin' is liked was

There are memories all over the place
Bringin' it back all so clear
Remember all of those days
Wishing you were here

Am        F                Am       F
Chorus: All those lonely nights, lonely nights
Am       F         C        E
Lonely nights, lonely nights...

Lonely nights, I gotta fight

For you, yes, I do

Since you're gone
There is the heart that bleeds
Since you're gone
I'm not the man I used to be

I follow your steps in the snow
The traces disappear
We know what we've lost when it's gone
I'm wishing you were here

Chorus.

I go back to the places we've been
It feels like you're still there
I live on those moments again
Wishing you were here

Вверх

Lonely Nights (2 вариант)

Am/F/Dm/[c/b/]Am

c/b - ноты на 5й стpуне

Since you're gone
There is an empty spase
Since you're gone
The world is not the same
Am               Dm
I go back to the places we've been
G                         C   /E7/ -может E7 и нету.
It feels like you're still there
Am                Dm
I live all those moments again
G                E7
Wishing you were here

Since you're gone
There is an lonely heart
Since you're gone
Nothin' is like it was
There are memories all over the place
Bringin' it back all so clear
Remember all of those days
Wishing you were here

Am            F
All those lonely nights, lonely nights
Am              F
Lonely nights, lonely nights
Am               F               C         E7
Lonely nights, I gotta fight for you, yes I do

Yes I do

Since you're gone
There is a heart that bleeds
Since you're gone
I'm not the man I used to be
I follow you steps in the snow
The traces disappear
We know what we've lost when it's gone
I'm wishing you were here
All those lonely nights
I gotta fight for you, yes I do
Yes I do

Вверх

No One Like You

Am                F              G            Am
Girl, it?s been a long time that we?ve been apart
F          G             Am
Much too long for a man who needs love
C                        E
I miss you since I?ve been away
Am              F         G         Am
Babe, it wasn?t easy to leave you alone
F           G           Am
It?s getting harder each time that I go
C                         E
If I had the choice, I would stay
Am
There?s no one like you
F            G           Am
I can?t wait for the nights with you
F           G            Am
I imagine the things we?ll do
F        G        C   E
I just wanna be loved by yo-ou

No one like you
I can?t wait for the nights with you
I imagine the things we?ll do
I just wanna be loved by you

Girl, there are really no words strong enough
To describe all my longing for love
I don?t want my feelings restrained
Ooh, babe, I just need you like never before
Just imagine you?d come through this door
You?d take all my sorrow away

There?s no one like you
I can?t wait for the nights with you
I imagine the things we?ll do
I just wanna be loved by you

No one like you
I can?t wait for the nights with you
I imagine the things we?ll do
I just wanna be loved by you

No one like you

Вверх

No Pain, No Gain

 intro (repeat many times)
--------------------------------------------------------------
--------------------------------------------------------------
-9-9-9-9-9-9------5-5-5-x-5------7-7-7-7-7-7-----9-9-9-x-9-
-9-9-9-9-9-9------5-5-5-x-5------7-7-7-7-7-7-----9-9-9-x-9-
-7-7-7-7-7-7------3-3-3-x-3------5-5-5-5-5-5-----7-7-7-x-7-
--------------------------------------------------------------

verse

-------------------------------------
-------------------------------------
-9---------7---------------7--------
-9---------7-w/ volume ------7-again---
-7---------5-----knob-------5---------
-------------------------------------
-------------------------------------

prechorus (The weak will fall, the strong remain)
guitar 2
-------------------------------------
---------------------H---------------
-------5-----4-------2-dive-----------
--5----5-----4------------------------
--5----3-----2------------------------
--3-----------------------------------

presolo

-------------------------------------
-------------------------------------
-------------------------------------
-------------------------------------
-8-10--8-10--8-10--3--5-------------
-6--8--6--8--6--8--1--3-------------

solo rhythm play intro

end of song play intro

Вверх

Now!

Am
Like it played loud
Powerhouse sounds
My baby wants to rock and let it out
Really high born
Morning till down
I?m going all the way just on and on
G
It?s gonna be wild, it?s gonna be wild
It?s gonna be wild
-  Am
Now!
Am
Teach me to fly
Wanna stay high
I have to live it up before I die
Nightlife and booze
Girls to choose
Are you ready, baby come on let?s cruise
G
It?s gonna be wild, it?s gonna be wild
It?s gonna be wild
-  Am
Now!
C           G
Getting out of control
Dm                       E
There?s nothing that can bring me down
C                  G
Nothing I?ll leave out tonight
Dm                E
I?m feelin? good. I?m living now!

Like it real hot
Never can stop
I?m running down the line to the top
Never stay low
I?m on the go
No one holds me back from my show

It?s gonna be wild, it?s gonna be wild
It?s gonna be wild
Now!
It?s gonna be wild, it?s gonna be wild
It?s gonna be wild
Now! Now! Now! Now! Now! Now! Now!

Вверх

Send Me An Angel

Riff1
e|----0----------0----------2----------2------|
h|------5----------5----------3----------3----|
g|--------4----------4----------4----------4--|
d|-2------------------------------------------|
a|------------3----------5----------2---------|
e|--------------------------------------------|

Riff2
e|----0----------0----------2------2----------|
h|------5----------5----------3---------3-----|
g|--------4----------4----------4-----4---4---|
d|-2------------------------------------------|
a|------------3----------5--------------------|
e|--------------------------------------------|

Riff1
The wise man said just walk this way
Riff2
To the dawn of the light
Riff1
The wind will blow into your face
Riff2
As the years pass you by
Hear this voice from deep inside
It?s the call of your heart
Close your eyes and your will find
The passage out of the dark

H#m     E
Here I am
C#m          D                   E
Will you send me an angel
H#m     E
Here I am
C#m          D                   E
In the land of the morning star

The wise man said just find your place
In the eye of the storm
Seek the roses along the way
Just beware of the thorns

Here I am
Will you send me an angel
Here I am
In the land of the morning star

The wise man said just raise your hand
And reach out for the spell
Find the door to the promised land
Just believe in yourself
Hear this voice from deep inside
It?s the call of your heart
Close your eyes and your will find
The passage out of the dark

Here I am
Will you send me an angel
Here I am
In the land of the morning star
Here I am
Will you send me an angel
Here I am
In the land of the morning star

Вверх

Send Me An Angel (2 вариант)

    Am      C          D5        Bm
The wise man said just walk this way
G           D
To the dawn of the light
Am       C     D5        Bm
The wind will blow into your face
G              D
As the years pass you by
Am        C          D5     Bm
Hear this voice from deep inside
G            D
It?s the call of your heart
Am         C        D5        Bm
Close your eyes and your will find
G              D
the passage out of the dark

{chorus}
G      D
Here I am
Dm         Am
Will you send me an angel
G      D
Here I am
Dm                  D5
In the land of the morning star

{verse 2}
Am       C         D5        Bm
The wise man said just find your place
G          D
In the eye of the storm
Am       C     D5        Bm
Seek the roses along the way.
G          D
Just beware of the thorns

{chorus}
[powerchords in (with dist)]
G      D
Here I am
Dm         Am
Will you send me an angel
G      D
Here I am
Dm                  D5
In the land of the morning star
[powerchords out]
{solo}

{verse 3}
Am       C         D5         Bm
The wise man said just raise your hand
G           D
And reach out for the spell
Am       C           D5       Bm
Find the door to the promised land
G            D
Just believe in yourself
Am        C          D5      Bm
Hear this voice from deep inside
G            D
It?s the call of your heart
Am         C        D5       Bm
Close your eyes and you will find
G          D
the way out of the dark

[powerchords in (with dist.)]
{chorus & end}
G      D
Here I am
Dm         Am
Will you send me an angel
G      D
Here I am
Dm                  D5
In the land of the morning star
G      D
Here I am
Dm         Am
Will you send me an angel
G      D
Here I am
Dm                  D5
In the land of the morning star

------------------------------------------------------
Am          C           D5          Bm
----0-----------0--------------------------------------------------
-------1-----------1--------3-----------3--------------------------
----------2-----------0--------2-----------4-----------------------
-2-----------------------0--------0-----------4--------------------
-------------3-----------------------2-----------------------------
-------------------------------------------------------------------

Am          C          Dm7
----0-----------0----------------------------------
-------1-----------1-------------------------------
----------2-----------0--------5-----7-----5-------
-2--------------------------7-----7-----5-----7----
-------------3-----------5-------------------------
---------------------------------------------------

"When The Smoke IS Going Down"

Riff A (Opening):

-----1--------3--1--0-----|-----1-----------0--------|--
--------3--------------3--|--------3-----------3-----|--
-----------2--------------|-----------2-----------2--|--
--0-----------------------|--------------------------|--
--------------------------|--1-----------3-----------|--
--------------------------|--------------------------|--


Riff B:

----1--------1--------0---|-----0--------0--------0--|--
-------3--------3---------|--------1--------1--------|--
----------2--------2------|-----------0--------0-----|--
-0------------------------|--------------------------|--
--------------------------|--3-----------------------|--
--------------------------|--------------------------|--

During the verses, alternate between Riff B and Riff A.


Chorus (with heavy distortion):

(A Maj)                   (D Min)        (Eb Maj)           (D Min)
I climb the stage again tonight, and the place seems still alive

(C Maj)        (D Min)
When the smoke is going down...



Also, here?s my version of the solo (not on the previous post):

=======================================================================
Here 10/11      means slide from 10 to 11
10/(12)    means play 10 and bend a whole step to 12
10/(12)10 means play 10, bend a whole step up, then release bend
to come back down
(22)20    means pre-bend to 22, play, then release to 20

Vertical lines are not bar lines, but only divide things up logically
=======================================================================


----------------8---------|---------8--10/(12)10------|-
---8--8--10/11------------|--10/11-----------------10--|-
-------------------9--10--|----------------------------|-
--------------------------|----------------------------|-
--------------------------|----------------------------|-
--------------------------|----------------------------|-


---------------15--------------|----------15/(17)15----------|-
---15--17--18------17----------|--17--18--------------15--17--|-
-----------------------17------|------------------------------|-
---------------------------14--|------------------------------|-
-------------------------------|------------------------------|-
-------------------------------|------------------------------|-


(   approx.   )
(1/4 step bend)
---17--18--20--22--20--22-----20--22----|--10--------|-
----------------------------------------|----10------|-
----------------------------------------|------10----|-
----------------------------------------|--------12--|-
----------------------------------------|------------|-
----------------------------------------|------------|-


---20--20--20--20--|--17/(18)17------------------------------------
-------------------|--------------18--20--18--20--20/(22)--(22)20--
-------------------|------------------------------------------------
-------------------|------------------------------------------------
-------------------|------------------------------------------------
-------------------|------------------------------------------------


---------------|----------------------|-
---18--17--18--|--18/(20)18--17------|-
---------------|------------------19--|-
---------------|----------------------|-
---------------|----------------------|-
---------------|----------------------|-

Вверх

Still Loving You

  Gm
Time, it needs time to win back your love again.
A                D
I will be there, I will be there.
Gm
Love, only love can bring back your love someday.
A                D
I will be there, I will be there.

Gm D7 Gm D7

Gm
Fight, babe, I?ll fight to win back your love again.
A                D
I will be there, I will be there.
Gm
Love, only love can break down the walls someday.
A                D
I will be there, I will be there.

Gm       Eb
If we?d go again
B                      F
All the way from the start.
Gm       Eb
I would try to change
B                           F
The things that killed our love.

Gm              Cm                 D
Your pride has build a wall, so strong
Gm
That I can?t get through.
Eb
Is there really no chance
F
To start once again?
Gm
I?m loving you.

Gm D7 Gm D7

Gm
Try, baby try To trust in my love again.
A                D
I will be there, I will be there.
Gm
Love, only love just shouldn?t be thrown away.
A                D
I will be there, I will be there.

Gm      Eb
If we?d go again
B                      F
All the way from the start.
Gm       Eb
I would try to change
B                          F
The things that killed our love.

Gm F Gm        Cm                    D C   D
Yes I?ve hurt your pride, and I     know
Gm
What you?ve been through.
Eb
You should give me a chance
F
This can?t be the end.

Gm  Eb B
I?m still loving you.
F                Gm   Eb B
I?m still loving you,
F
I need your love.
Gm   Eb B
I?m still loving you.
F
Still loving you, baby...

Вверх

The Sails of Charon

e:---------------------------------------------------------------------------|
B:---------------------------------------------------------------------------|
G:---------------------------------------------------------------------------|
D:---------------------------------------------------------------------------|
A:-2/14--14--12--10--9---9---10--12--3---3---5---7---2---2---2/3---3---5---7-|
E:---------------------------------------------------------------------------|


ried my best. Good luck.


e:----------------------------------------|
B:----------------------------------------|
G:----------------------------------------|
D:----------------------------------------|
A:--2---2---2/14--12--10--9---10--12--6---|
E:----------------------------------------|




Section A2
e:|--------------------------------------------------------------------------|
B:|--------------------------------------------------------------------------|
G:|--------------------------------------------------------------------------|
D:|--------------------------------------------------------------------------|
A:|--2/14-14-12-10-9--9--10-12-3--3--5--7--2--2--2/3--3--3--5--7--2--2--2/14-|
E:|--------------------------------------------------------------------------|





e:---------------------------------------------------------------------------|
B:---------------------------------------------------------------------------|
G:---------------------------------------------------------------------------|
D:---------------------------------------------------------------------------|
A:12-10-9--10-12-6--2/14-12-10-9--10-12-------2/14-12-10-9--10-12-14-12-10-9-|
E:--------------------------------------10/8---------------------------------|





e:--------|
B:--------|
G:--------|
D:--------|
A:-10-12--|
E:--------|




Section B1 Rythym   C  B  D  C
e:-----------------------------------|
B:-----------------------------------|
G:-----------------------5--4--7--5--|
D:-----------------------5--4--7--5--|
A:-----------------------3--2--5--3--|
E:-----------------------------------|




Section B2    C/B  B  B  C/B  B  B  C  B/C  B  B  C  C  C
e:---------------------------------------------------------------------------|
B:---------------------------------------------------------------------------|
G:-----------------5/4--4--4--5/4--4--4--5--5/4--4--4--5--5--5---Play-3-times|
D:-----------------5/4--4--4--5/4--4--4--5--5/4--4--4--5--5--5-----3rd-time-o|
A:-----------------3/2--2--2--3/2--2--2--3--3/2--2--2--3--3--3-----last-5-cho|
E:---------------------------------------------------------------------------|





e:------|
B:------|
G:-more-|
D:mit---|
A:rds---|
E:------|




Section B2
e:--------------------------------------------------------------8--8/7--7--7-|
B:------------5--5/4--4--4--5--5/4--4--4--5--5/7--5--5/4--4--4--5--5/4--4--4-|
G:---------------------------------------------------------------------------|
D:--------------To-be-played-over-Section-B1--Not-a-separate-section---------|
A:---------------------------------------------------------------------------|
E:---------------------------------------------------------------------------|





e:-8--8/10-8--8/7--7--7--8--8/7--7--7--8--8/7--7--7---|
B:-5--5/7--5--5/4--4--4--5--5/4--4--4--5--5/4--4--4---|
G:----------------------------------------------------|
D:----------------------------------------------------|
A:----------------------------------------------------|
E:----------------------------------------------------|




Section C1
e:------------------------------------17------------------------------------|
B:------------------------------------------7--8--10-8--7-----8--7-----------|
G:------------------------------11/14----------------------9--------9--8--9--|
D:-------------------------9/13----------------------------------------------|
A:---------------2/6--6/12---------------------------------------------------|
E:---------------------------------------------------------------------------|





e:---------------------------------------------------------------------------|
B:7--8--7-----75-----54-----------4--5--4----------------------------------|
G:---------9-------8-------5--4--5-----------7--5--4--2--5--4--2-------------|
D:----------------------------------------------------------------5--4-----4-|
A:----------------------------------------------------------------------7----|
E:---------------------------------------------------------------------------|





e:---------------------------------------------------------------------|
B:---------------------------------------------------------------------|
G:-------4--5--7--5--4--------------4~---------------------------------|
D:-5--7-----------------7--5--4---------4~--4--5--7--5--4-----4--5/11--|
A:-------------------------------7-------------------------7-----------|
E:---------------------------------------------------------------------|




Section C2
e:-------------------------------------15----------------14----------------12|
B:-------------------------------12-13----13-1210-10-12----12-108--8--10---|
G:-------------11-12-14-12-11------------------------------------------------|
D:----------------------------14---------------------------------------------|
A:---------------------------------------------------------------------------|
E:---------------------------------------------------------------------------|





e:---------------10---------------8-----------------------------5------------|
B:-10-87--7--8-----8--75--4--5-----5--4-----------7--------------8--7--5---|
G:-----------------------------------------5--4--5-----5--4-----------------8|
D:-----------------------------------------------------------7---------------|
A:---------------------------------------------------------------------------|
E:---------------------------------------------------------------------------|





e:----------------------------|
B:----------------------------|
G:--54--------------4--5/10--|
D:-------7--5--3--------------|
A:----------------7-----------|
E:----------------------------|




Section C3
e:------------------------------15-14-15-14-------12-11----------------------|
B:------------13-12-10-12----10----------------------------10~--13-12-10-12--|
G:------------------------11----------------------------11------------------1|
D:------------------------------------------13-14----------------------------|
A:---------------------------------------------------------------------------|
E:---------------------------------------------------------------------------|





e:-----15-14-15-14-------12-11-------------------------------------|
B:--10----------------------------10~-------------10-7-----7-------|
G:1----------------------------11-----------------------8----------|
D:-----------------13-14--------------9--9--8--7--------------10--|
A:-----------------------------------------------------------------|
E:-----------------------------------------------------------------|




Section D1-  Two guitar harmony - lower guitar
e:-------------5--8--5--8--5--8--5--5--------5--8--5--5--------5--8--5--5----|
B:----------7--------------------------4--7--------------4--7--------------4-|
G:---------------------------------------------------------------------------|
D:---------------------------------------------------------------------------|
A:---------------------------------------------------------------------------|
E:---------------------------------------------------------------------------|





e:----5--8--5--5----6--9--6--6-----6--7--10-7--7-----7--8--11-8--8-----8--9--|
B:-7----------------------------8-----------------9-----------------10-------|
G:---------------------------------------------------------------------------|
D:---------------------------------------------------------------------------|
A:---------------------------------------------------------------------------|
E:---------------------------------------------------------------------------|





e:12-9--9-----9--|
B:---------11----|
G:---------------|
D:---------------|
A:---------------|
E:---------------|




Section D2 - upper guitar
e:-------------11-14-11-14-11-14-11-11-------11-14-11-11-------11-14-11-11---|
B:----------13-------------------------10-13-------------10-13-------------10|
G:---------------------------------------------------------------------------|
D:---------------------------------------------------------------------------|
A:---------------------------------------------------------------------------|
E:---------------------------------------------------------------------------|





e:----11-14-11-11-12-15-12-12----12-13-16-13-13----13-14-17-14-14----14-15-18|
B:-13-------------------------14----------------15----------------16---------|
G:---------------------------------------------------------------------------|
D:---------------------------------------------------------------------------|
A:---------------------------------------------------------------------------|
E:---------------------------------------------------------------------------|





e:-15-15----15-|
B:-------17----|
G:-------------|
D:-------------|
A:-------------|
E:-------------|




Section E
e:------------19~-19~-19~-19~-19b(20)-19b(20)-19b(20)19----17~-14----14--5/8-|
B:------------------------------------------------------19--------16---------|
G:---------------------------------------------------------------------------|
D:---------------------------------------------------------------------------|
A:---------------------------------------------------------------------------|
E:---------------------------------------------------------------------------|





e:-11----8---------------------------------------|
B:----10----7--10----7--------------------7------|
G:----------------8--------8-----8-----------8---|
D:----------------------10----10----10-7---------|
A:-----------------------------------------------|
E:-----------------------------------------------|




Section F1
e:---------------------------------------------------------------------------|
B:---------------------------------------------------------------------------|
G:-------------------------------------------------4-------------------------|
D:-------------9--7--5--7--5--4--5--4-----4--5--7--------------------------5-|
A:-------------------------------------7--------------7--7--6--7--5--7--9----|
E:----------------------------------------------------8--8--7--8-------------|





e:---------------------------------------------------------------------------|
B:---------------------------------------------------------------------------|
G:-------------------------------4-----------4--4-----4-----4--5--7--5--4----|
D:----------5--5--4--5--4--5--7-----7--5--4--5--5--7--5--7-----------------7-|
A:-9--7--5--7--7--6--7-----------------------------9-------------------------|
E:---------------------------------------------------------------------------|





e:----------------------------------7--8-----8--|
B:-5-----------7--5--------7--8--10-------10----|
G:----7--5--4--------7--5-----------------------|
D:----------------------------------------------|
A:----------------------------------------------|
E:----------------------------------------------|

Вверх

Under the same sun

Вступление:  HmC/D   (4раза)
Hm              C                D
I saw the money, it was shatter by your done
Hm           C             D
Her discream, so in far, no one cryed
Hm              C               D
I so the mother, she was prayed for a sun
Hm         C                   D
Bringing back, let it let, don't let it die

Em            A7
Припев: Do you ever ask yourself
F#m               Hm
There are the heaven in the sky?
Em             A7
Why keep we get it pry?
D                      F # m
Cause we are live under the same sun,
D                     F#m
We are walk under the same moon,
Em       B           D               A
Then why, why can we live this one?

I saw the evening, evening shadows want my one
Watch the land live on to the sacrifice
I saw the children, children of the sun
How they left, how they glad, how they die

Припев: Do you ever ask yourself
There are heaven in the sky
Why keep we start the fight!
Cause we are live under the same sun,
We are walk under the same moon,
Then why, why can we live this one?

Hm                      G
Sometimes I think I going mad
H          C                D
We losing of we hear and noone since to care,
Hm                         G                        H
But in my heart is doesn't change, we've got to rearange
C                   D
And bring a world some love

Проигрыш: Hm/A/G#m/G   (2 раза)

Припев: Don't it really matter
This a heaven of the dark
We should could give some love
Cause we are live under the same sky,
We are look at better same stars ,
Then why, why can we live this one?

Cause we are live under the same sun,
We are walk under the same moon,
We are live under the same sky,
We are look at better same stars ,
Then why, tell me why can we live this one?

Вверх

Walking On The Edge

Intro & Verse:
Dm              C             Dm              C
E----1---------5-------------------1---------5----
B------3-----------1-1-1-3---1-------3-----------1
G--------2---------0-0-0-0---0---------2---------0
D--0-------3-------2-2-2-2---2---0-------3-------2
A------------------3-3-3-3---3-------------------3
E-------------------------------------------------

Verse:
Welcome to a trip
Into my hurt feelings
To the center of my soul
You better bring a light
To find the house of meanings
The labyrinth of yes or no

Bridge:
Hm  D
For you life is just like chess
F
If you don?t make the move
G
You?ll lose the game like this

Chorus:
Am   C         F             G
Cause you, you?re walking on the edge
Am         C        F              G
You, you choose the way of love and pain
Am C F                   G
You, don?t you see the bridge
Am           C        F           G
I?ve built for you, it?s just one step to start again

Intro:
Dm              C             Dm              C
E----1---------5-------------------1---------5----
B------3-----------1-1-1-3---1-------3-----------1
G--------2---------0-0-0-0---0---------2---------0
D--0-------3-------2-2-2-2---2---0-------3-------2
A------------------3-3-3-3---3-------------------3
E-------------------------------------------------

Verse:
Welcome to a trip
Into my emotions
To the language of my heart
You?re sailing on a river
That becomes an ocean
Wich you can only cross with love
For you, life is just like chess

Bridge:
Hm  D
For you, life is just like chess
F
If you don?t make the move
G
You?ll lose the game like this.

Chorus:
Am   C         F             G
Cause you, you?re walking on the edge
Am         C        F              G
You, you choose the way of love and pain
Am C F                   G
You, don?t you see the bridge
Am           C        F            G
I?ve built for you, it?s just one step to start again

Solo:
E------------------------------------------------------------------------
B---------8-7---------------8-7-10-8---------8-7----------------8-7-10-13
G-----7-9---------7-----7-9--------------7-9---------7-----7--9----------
D---7---------7-5-----7----------------7---------7-5-----7---------------
A------------------------------------------------------------------------
E------------------------------------------------------------------------

Bridge:
Hm  D
For you, life is just like chess
F
If you don?t make the move
G
You?ll lose the game like this.

Chorus:
Am   C         F             G
Cause you, you?re walking on the edge
Am         C        F              G
You, you choose the way of love and pain
Am C F                   G
You, don?t you see the bridge
Am           C        F            G
I?ve built for you, it?s just one step to start again

Riff:
Hm             D
Walking on the edge
Hm             D
Walking on the edge

Chorus:
Am   C         F             G
Cause you, you?re walking on the edge
Am         C        F              G
You, you choose the way of love and pain
Am C F                   G
You, don?t you see the bridge
Am           C        F            G
I?ve built for you, it?s just one step to start again

Riff:
Hm             D
Walking on the edge
Hm             D
Walking on the edge

Вверх

When The Smoke Is Going Down

Riff A (Opening):

-----1--------3--1--0-----|-----1-----------0--------|--
--------3--------------3--|--------3-----------3-----|--
-----------2--------------|-----------2-----------2--|--
--0-----------------------|--------------------------|--
--------------------------|--1-----------3-----------|--
--------------------------|--------------------------|--


Riff B:

----1--------1--------0---|-----0--------0--------0--|--
-------3--------3---------|--------1--------1--------|--
----------2--------2------|-----------0--------0-----|--
-0------------------------|--------------------------|--
--------------------------|--3-----------------------|--
--------------------------|--------------------------|--

During the verses, alternate between Riff B and Riff A.


Chorus (with heavy distortion):

(A Maj)                   (D Min)        (Eb Maj)           (D Min)
I climb the stage again tonight, and the place seems still alive

(C Maj)        (D Min)
When the smoke is going down...



Also, here?s my version of the solo (not on the previous post):

=======================================================================
Here 10/11      means slide from 10 to 11
10/(12)    means play 10 and bend a whole step to 12
10/(12)10 means play 10, bend a whole step up, then release bend
to come back down
(22)20    means pre-bend to 22, play, then release to 20

Vertical lines are not bar lines, but only divide things up logically
=======================================================================


----------------8---------|---------8--10/(12)10------|-
---8--8--10/11------------|--10/11-----------------10--|-
-------------------9--10--|----------------------------|-
--------------------------|----------------------------|-
--------------------------|----------------------------|-
--------------------------|----------------------------|-


---------------15--------------|----------15/(17)15----------|-
---15--17--18------17----------|--17--18--------------15--17--|-
-----------------------17------|------------------------------|-
---------------------------14--|------------------------------|-
-------------------------------|------------------------------|-
-------------------------------|------------------------------|-


(   approx.   )
(1/4 step bend)
---17--18--20--22--20--22-----20--22----|--10--------|-
----------------------------------------|----10------|-
----------------------------------------|------10----|-
----------------------------------------|--------12--|-
----------------------------------------|------------|-
----------------------------------------|------------|-


---20--20--20--20--|--17/(18)17------------------------------------
-------------------|--------------18--20--18--20--20/(22)--(22)20--
-------------------|------------------------------------------------
-------------------|------------------------------------------------
-------------------|------------------------------------------------
-------------------|------------------------------------------------


---------------|----------------------|-
---18--17--18--|--18/(20)18--17------|-
---------------|------------------19--|-
---------------|----------------------|-
---------------|----------------------|-
---------------|----------------------|-

Вверх

When You Came Into My Life

1) Intro
Gtr.1(acoustic): plays Rhy.Fig.1

2) 1st Verse
Gtr.1: plays Rhy.Fig.2
Vocal:
Bm
You give me your smile
D
A piece of your heart
A              G
You give me the feel I?ve been looking for
Bm
You give me your soul
D
Your innocent love
A             G
You are the one I?ve been waiting for
Em          F#
I?ve been waiting for

3) 2nd Verse
Gtr.1: plays Rhy.Fig.2A
Vocal:
Bm
We?re lost in a kiss
D
A moment in time
A
Forever young
G             Em       F#
Just forever, just forever in love

4) Chorus
Gtr.1: Plays Rhy.Fig.3
Gtr.2(distortion): plays chords written in vocal part
Gtr.3(distortion): Plays Rhy.Fig.4 (in original playing on keyboards)
Vocal:
G
When you came into my life
Em
It took my breath away
G
Cause your love has found it?s way
F#
To my heart

5) Gtr.1: plays Rhy.Fig.5
Gtr.3: plays Rhy.Fig.6

6) 3rd Verse
Gtr.1: plays Rhy.Fig.2
Vocal:
Bm
You make me dream
D
By the look in your eyes
A               G
You give me the feel, I?ve been longing for
Bm
I wanna give you my soul
D
All my life
G             A
Cause you are the one I?ve been waiting for
Em             F#
I?ve been waiting for so long

7) Chorus
Gtr.1: Plays Rhy.Fig.3 2 times
Gtr.2: plays chords written in vocal part
Gtr.3: Plays Rhy.Fig.7  2 times
Vocal:
G
When you came into my life
Em
It took my breath away
G
And the world stopped turnin? round
F#
For your love
G
When you came into my life
Em
It took my breath away
G
Cause your love has found it?s way
F#
To my heart

8) Solo
Gtr.1: plays Rhy.Fig.2
Gtr.3(acoustic): plays Rhy.Fig.8
Vocal
Bm
Into my heart
.......
Em       F#
Just forever in love

9) Repeat order 7 and fading out...


Chord fingerings:

EADGbe     EADGbe      EADGbe
F# 244xxx   G 355xxx   Em x799xx


Rhythm Figures:

1.
Bm              D               A              G
e:------------------------5----------------------------|
b:----2---3---2-------5-------5-------0-2-3-2-0--------|
G:---4--4---4----4---7--7---7----7---2----------2-4----|
D:--4-----------4---7-----------7---2-------------5----|
A:-2---------------5---------------0--------------5----|
E:------------------------------------------------3----|

2.

Bm              D               A              G
e:--------2---------------5---------------------------------------
b:----2-------2-------5-------5-------0-2-3-2-0------0---3---0----
G:---4--4---4----4---7--7---7----7---2----------2---2--2---2------
D:--4-----------4---7-----------7---2----------2---0--------------
A:-2---------------5---------------0------------------------------
E:------------------------------------------------3---------------

Bm              D               A              G
e:--------2---------------5---------------------------------------
b:----2-------2-------5-------5-------0-2-3-2-0------0-3-0---0----
G:---4--4---4----4---7--7---7----7---2-------2--2---2-------2-----
D:--4-----------4---7-----------7---2--------------0-------0------
A:-2---------------5---------------0------------------------------
E:------------------------------------------------3---------------

Em              F#m
e:-------------------------|
b:--------0----------------|
G:----0--------0--0--------|
D:---2--2-----2--2-4-------|
A:--2----------------------|
E:-0-----------------------|

2A.
Bm              D               A              G
e:--------2---------------5---------------0-----------------------
b:----2-------2-------5-------5-------2-------2----------3--------
G:---4--4---4----4---7--7---7----7---2--2---2----2---4-------4----
D:--4-----------4---7-----------7---2-----------2---5--5---5------
A:-2---------------5---------------0---------------5--------------
E:------------------------------------------------3---------------

Em              F#m
e:-------------------------|
b:--------0----------------|
G:----0--------0--0--------|
D:---2--2-----2--2-4-------|
A:--2----------------------|
E:-0-----------------------|



3.
G               Em              G               F#
e:-------------------------------------------------------
b:--------3---------------0---------------3--------------
G:----4-------4-------0-------0-------4-------4----------
D:---5--5---5----5---2--2---2----2---5--5---5----5-4-----
A:--5-----------5---2-----------2---5-----------5--------
E:-3---------------0---------------3---------------------

4.
G               Em              G               F#
e:-------------------------2---3---3---------------2--------2-------
b:-------------3-------5---5---5---3---------------2----------2-----
G:---------4---4---4---4-----------4---------------3------------3---
D:-----5---5-------2---------------5---------------4--------------4-
A:-5---5------------------------------------------------------------
E:-3----------------------------------------------------------------

5.
Bm
e:----------------------------
b:-----2---2---2-------2---3--
G:----4--4---4---4----4--4----
D:---4----4---4---4--4----4---
A:--2---------------2---------
E:----------------------------

6.
Bm
e:------------------9------5---
b:------------------7------2---
G:-----------------------------
D:--4--------------------------
A:--2--------------------------
E:-----------------------------

7.
G               Em              G               F#
e:-------------------------2---3---7---------------11---------------
b:-------------3-------5---5---5---8---------------11---------------
G:---------4---4---4---4-----------7---------------11---------------
D:-----5---5-------2---------------9---------------9----------------
A:-5---5------------------------------------------------------------
E:-3----------------------------------------------------------------

8.
Bm              D               A               G
e:----------------------------------------------5---------------7--
b:------------------75-------------------------------------8------
G:---------------------7-7-----4-6-6/7-6-----------7----7----------
D:---------------------------7-------------------------------------
A:-----------------------------------------------------------------
E:-----------------------------------------------------------------

Bm              D               A               G
e:6/7--------------------------5---5-------------------------------
b:-------2-2/3-2---5/7-5-------------878-757-5-5-------------------
G:-----4-----------------7-6-7----------------7--764---------------
D:---4-----------4---------------7---------------------------------
A:-----------------------------------------------------------------
E:-----------------------------------------------------------------

Em              F#
e:-------555-323-202---2/32--|
b:----------------------------|
G:----------------------------|
D:----------------------------|
A:----------------------------|
E:----------------------------|

Вверх

Where The River Flows

Verse1:
Am    Esus4
Under suburban skies
Dm            Am
Where life is bleeding
С              G
Where concrete skies are grey
Dm                            G
There?s plenty of room for dreaming

Verse2: (same chords: Am Esus4 Dm Am C G Dm G)
I still keep coming here
Follow those traces
I travel back in time
Remember all those places

Verse3:
Feels like I never left
The house?s still standing
Down by the river where
The dreams are never ending

Chorus:
F
You find me
C
You find me
G            G
You find me by the river
F
You find me
C
You find me
G            G                  Am
You find me where the river flows

Verse4:
Under the silent moon
This industrial city
Is heartland even know
Life?s been not that pretty

Verse5:
I still keep coming here
To that old river
To find my roots just where
The future lives forever

Chorus: (same chords: F C G G x2)
You find me
You find me
You find me by the river
You find me
You find me
You find me, you can find me

Bridge:
C        Am  Dm                       G
By the river where dreams will never die
C        Am  Dm                G
By the river under suburban skies

[play verse chords x2]

Bridge: (same chords: C Am Dm G x2)
By the river where dreams have never died
By the river I look through children?s eyes

Chorus:
You find me
You find me
You find me by the river
You find me
You find me
You find me where the river flows

Chorus:
You find me
You find me
You find me by the river
You find me
You find me
You find me where the river flows


Am
Where the river flows
Am
Where the river flows
Am
Where the river flows

Вверх

White Dove

D          A
A place without a name
Em        Hm
Under a  burning sky
There is no milk and hunny here
In the land of God

Somebody holds a sign
It sais "we?re humans too"
And while the sun goes down
The world goes by

Припев:
White dove fly with the wind
Take our hope under your wind
For the world to know
Their hope will not die
If their children cry

Waves big like a house
They?re stranded on a piece of wood
To leave it all behind
To start again
And instead of a new life
All they find is the door gets closed
And they keep looking for
A place called hope

2-ой припев...
C                  Hm
Can anyone tell me why
Em
The children of the world
F#
Have to pay the price

And now you?re telling me
You?ve seen it all before
I know that?s right but still
It breaks my heart
The golden lamb we?ve sent
Makes us feel better now
But you know it?s just a drop
In the sea of tears

Hm:
|---|-1-|---|---
|---|-1-|-2-|---
|---|-1-|---|-3-
|---|-1-|---|-4-
|---|-1-|---|---
|---|-1-|---|---

Вверх

Wind Of Change

[Intro:] F, Dm, F, Dm, Am7, Dm Am7, G

C                Dm
I follow the Moskva
C
Down to Gorky Park
Dm      Am7  G
Listening to the wind of change
C                 Dm
An August summer night
C
Soldiers passing by
Dm      Am7  G
Listening to the wind of change

[Interlude:]  F9, Dm, F, Dm, Am7, Dm Am7, G

C                     Dm
The world is closing in
C
Did you ever think
Dm          Am7    G
That we could be so close, like brothers
C                    Dm
The futures in the air
C
I can feel it everywhere
Dm      Am7  G
Blowing with the wind of change

[Chorus:]

C     G         Dm           G
Take me to the magic of the moment
C     G
On a glory night
Dm            G             Am
Where the children of tomorrow dream away
Am/F            G
In the wind of change

C                 Dm
Walking down the street
C
Distant memories
Dm      Am7 G
Are buried in the past forever



C                Dm
I follow the Moskva
C
Down to Gorky Park
Dm      Am7  G
Listening to the wind of change


C     G         Dm           G
Take me to the magic of the moment
C     G
On a glory night
Dm            G                  Am
Where the children of tomorrow share their dreams
Am/F          G
With you and me


C     G         Dm           G
Take me to the magic of the moment
C     G
On a glory night
Dm            G             Am
Where the children of tomorrow dream away
Am/F            G
In the wind of change


Am                        G
The wind of change blows straight
Am
Into the face of time
G
Like a stormwind that will ring
C
The freedom bell for peace of mind
Dm
Let your balalaika sing
E     E
What my guitar wants to say

[SOLO:]  F G, E Am, F G, Am,
F G, E7 Am, Dm, E


C     G         Dm           G
Take me to the magic of the moment
C     G
On a glory night
Dm            G                  Am
Where the children of tomorrow share their dreams
Am/F          G
With you and me


C     G         Dm           G
Take me to the magic of the moment
C     G
On a glory night
Dm            G             Am
Where the children of tomorrow dream away
Am/F            G
In the wind of change

[Outro:] F, Dm, F, Dm, Am7, Dm

Вверх

You And I

E|-------------------------12~-10--8-----------------|
B|-----10-13-13~--12--10--------------12--10---10~~~-|
G|-9-----------------------------------------9-------|
D|---------------------------------------------------|
A|---------------------------------------------------|
E|---------------------------------------------------|

E|--------------------------------------------|
B|-------5--8---6---5-------------------------|
G|-----5---------------7-5-7-5----------------|
D|-7----------------------------9--7--5~~~~~~-|
A|--------------------------------------------|
E|--------------------------------------------|

Вверх