Uriah Heep

Lady In Black
Whats Within My Heart
Wizard
Wizard (2 вариант)
Вверх

Lady In Black

      Am
She came to me one morning, one lonely Sunday morning,
G                        Am
her long hair flowing in the mid-winter wind.
I know not how she found me, for in darkness I was walking,
and destruction lay around me from a fight I could not win.

Am      G      Am     G   Am
Ahahaaahaahah, ahahaaahahaha !


She asked me name my foe then.  I said the need within some men
to fight and kill their brothers without thought of men or god.
And I begged her give me horses to trample down my enemies,
so eager was my passion to devour this waste of life.

But she would not think of battle that reduces men to animals,
so easy to begin and yet impossible to end.
For she the mother of all men had counciled me so wisely that
I feared to walk alone again and asked if she would stay.

"Oh lady lend your hand," I cried, "Oh let me rest here at your side."
"Have faith and trust in me," she said and filled my heart with life.
There is no strength in numbers.  Ive no such misconceptions.
But when you need me be assured I wont be far away.

Thus having spoke she turned away and though I found no words to say
I stood and watched until I saw her black cloak disappear.
My labor is no easier, but now I know Im not alone.
I find new heart each time I think upon that windy day.
And if one day she comes to you drink deeply
from her words so wise.
Take courage from her as your prize and say hello for me.

Вверх

Whats Within My Heart

1,2 куплеты - перебор, 3 куплет - бой
Intro: E

1)
E
Will I never see again
E7
The smiling faces of my friends
A
Could it be they?ve gone completely
Am
And though thoughts will linger
E
Sweetly in my heart

D		A
May I hear once more
Am		   E
The bird calls my name
May I be permitted just one friend
To share my game

F#
The one who doesn?t give a damn
Cm7	   Cm
For what I seem to be
A
And really cares for what I am and
H		   E
What?s within my heart

2)
I believe the sun will shine
And I know that given time
The leaves will blow tumble and
Cry upon the autumn stone below

And my heart grows tired each day
As the sun grow cold
Weary uninspired each day
Til the story is told

You gave your love to one
Who only wants
What you seem to be
And doesn?t really care for you or
What?s within your heart

3)
On my grave lay one black rose
Do this for me but don?t suppose
Because I?m gone, my soul is dead
For I?ll be here in spirit
And our love once more

There must be a heart somewhere
In need of the love I have
That will reach out in sincerety and
Take my life in hand

Then I?ll know it?s not some one
Who wants just what I seem to be
The one who cares
For what I am and
What?s within my heart

What?s within my heart ...

Вверх

Wizard

1--2--2--32--02-----3----0----------------------------------
2---3--3---3---3---3----3-3---------------------------------
3----2--2---2---2-0----0---0--------------------------------
4-0-------------------------2^-0----------------------------
5----------------3---2--------------------------------------
6-----------------------------------------------------------

1--2--2--32--02-----3----0---535----------------------------
2---3--3---3---3---3----3-3---------------------------------
3----2--2---2---2-0----0---0----0---------------------------
4-0---------------------------------------------------------
5----------------3---2--------------------------------------
6-----------------------------------------------------------

После этого все играется еще раз боем

He was the wizard of a thous and kings

And I chanced to meet him one night wandering

He told me tales and he drank my wine

Me and my magic man kinda feeling fine

He had a cloak of gold and eyes of fire

And as he spoke I felt a deep desire

To free the world of its fear and pain

And help the people to feel free again

Why don?t we listen to... the voices in our hearts

Cause then I know we?ll find... we?re not so far... apart

Everybody?s got to be happy...everyone should sing

For we know the joy of life... the peace that love can bring

So spoke the Wizard in his mountain home

The vision of his wisdom means we?ll never be alone

And now I will dream of my magic night

And the million silver stars that guide me with their light

Вверх

Wizard (2 вариант)

E-----2---2---3P2--0H2----------------------------------2----------
B-------3---3----3-----3-----------0-------0------------3----------
G--------------------------------0-------0--------------2----------
D---0--------------------------2-------0-----3-0-3B4-0--0----------
A----------------------------3-------2-------3-0-3B4-0-------------
E------------------------------------------------------------------

E-----2---2---3P2--0H2----------------------------------2----------
B-------3---3----3-----3-----------0-------0-hold-------3----------
G--------------------------------0-------0--------------2----------
D---0--------------------------2-------0---------3B4-0--0----------
A---0------------------------3-------2-----------3B4-0-------------
E------------------------------------------------------------------

E-----2----2-----2--2--3--2--0--2--0--0-0-0-0-----------------2----
B-----3----3-----3--3--3--3--3--3-----1-1-1-1---0-0-0-0--0-0--3----
G-----2----2-----2--2--2--2--2--2-----0-0-0-0---0-0-0-0--0-0--2----
D---0-0--0-0-----0--0--0--0--0--0-----2-2-2-2---0-0-0-0--0-0--0----
A---0----0----------------------------3-3-3-3---2-2-2-2--2-2-------
E------------------------------------------------------------------


D          Ds4    D- D C---G------D
He was the wizard of a thousand years
D                Ds4      D-  D      C--G---D
and I chanced to meet him one night, wandering.
C          G             C        G
He told me tales, and he drank my wine.
D         Ds4   D-  D     G    D
Me and my magic man kinda feel fine.

He had a cloak of gold and eyes of fire
and as he spoke I felt a keen desire
to free the world of its fear and hate
and help the people to feel free again

(Bridge)

Why dont we listen to the voices in our hearts
?cos then I know we?d find we?re not so far apart
everybody?s got to be happy, everyone should sing
for we know the joy of life is the peace that love can bring

So spoke the wizard from his mountain home.
The vision of his wisdom means we?ll never be alone
and I will dream of that magic night
and a million silver stars that guide us with their light

Вверх