Ennio Morricone

Chi Mai
A Fistful Of Dollars
Padre Ramirez

Вверх

IChi Mai

h  : hammer on
p  : pull off
/  : slide up
<> : natural harmonics

12/8 time.

% , . . , . . , . . , . .   , . . , . . , . . , . .
||-7-----------7-----7-----|---------5---5-----------|
||-------8-----------------|-------7---8-------7-----|
||-----9---9-------9---9---|-----7-----------7---7---|
||---9-------9---9-------9-|---7-----------7-------7-|
||-------------7-----------|-5-----------5-----------|
||-0-----------------------|-------------------------|


, . . , . . , . . , . .   , . . , . . , . . , . .
|-3-----0-----------2---3-|-3-----------------2---0-|
|-----0---0-------0---0---|-------1---------3---3---|
|---0-------0---0---------|-----2---2-----2---------|
|-------------------------|---2-------2-0-----------|
|-3-----------2-----------|-0-----------------------|
|-------------------------|-------------------------|


, . . , . . , . . , . .   , . . , . . , . . , . .
|-2-----------------------|-------0-----0-----------|
|-------0-----------0-----|-----------3-------------|
|-----0---0-------0---0---|-----0---0---------2-----|
|---0-------0---0-------0-|---2-------------2---2---|
|-------------------------|-3-----------0-3-------0-|
|-3-----------3-----------|-------------------------|


, . . , . .  , . . , . .   , . . , . . , . . , . .
|-------7------------------|-7-----------------------||
|-------------10-----------|-------------------7-----||
|--------------------9-----|-------8---------8---8---||
|-----7---7--------9---9---|-----9---9-----9-------9-||
|---7-------7----7-------7-|---9-------9-------------||
|-7------------7-----------|-7-----------7-----------||


, . . , . . , . . , . .   , . . , . . , . . , . .
||-7-----------7-----7-----|---------5---5-----------|
||-------8-----------------|-------7---8-------7-----|
||-----9---9-------9---9---|-----7-----------7---7---|
||---9-------9---9-------9-|---7-----------7-------7-|
||-------------7-----------|-5-----------5-----------|
||-0-----------------------|-------------------------|


, . .   , . . , . . , . .   , . . , . . ,   .   .   ,   .   .
|-3-----<12>----------2---3-|-------------2p0h2---2p0h2---2p0h2--|
|-----0-----0-------0---0---|-1-----------------------3-------3--|
|---0---------0---0---------|-------2----------------------------|
|---------------------------|-----2---2---0----------------------|
|-3-------------2-----------|-0-3-------3------------------------|
|---------------------------|------------------------------------|


, . . , . . , . . , . .   , . . , . . ,   .   .   ,   .   .
|-2-----------------------|-0----------------------------------|
|-------0-----------0-----|-------0-----5p3h5---5p3h5---5p3h5--|
|-----0---0-------0---0---|-----0---0---------------5-------5--|
|---0-------0---0-------0-|---2-------2------------------------|
|-------------------------|-3-----------3----------------------|
|-3-----------3-----------|------------------------------------|


, . . , . . , . . , . .   , . . , . . ,   .   .   ,   .   .
|-------------------------|------------------------------------|
|-------------------1-----|-4-----------4p2h4---4p2h4---4p2h4--|
|-2-----2---------2---2---|-----2-4-2---------------4-------2--| To
|-----4---4-----4-------4-|---4-------4------------------------| Coda $
|-0-3-------3-0-----------|-2-----------2----------------------|
|-------------------------|------------------------------------|


,  .  .  ,  .  .  ,  .  .  ,  .  .
|----------0-----------------0-----7--||
|-------0-----0-----------0-----8-----||
|----0-----------0-----0--------------||
|-------------------------------------||
|-------------------7-----------------||
|-0-----------------------------------||


,   .   .   ,   .   .   ,   .   .   ,   .   .
||-7---------------5-7-8-7-5-3-5-----------3---2--|
||-------------5-----------------------4----------|
||-------------4-----------------------4----------|
||-5-----------------------4----------------------|
||------------------------------------------------|
||------------------------------------------------|


,   .   .   ,   .   .   ,   .   .   ,   .   .
|-3-------------------------------------------10-|
|-------------0----------------------10-12-13----|
|-------------0--------------9-11-12-------------|
|-2-----------------------0----------------------|
|------------------------------------------------|
|------------------------------------------------|


,   .   .   ,     .     .     ,   .   .   ,   .   .
|-12----------------10-12-13-12-10-------------------8-7-|
|--------------------------------------------9-----------|
|--------------0-----------------------------9-----------|
|-------------10-----------------------------------------|
|--------------------------------------------------------|
|--8-----------------------------7-----------------------|


, . . , . . , . . , . .      , . . , . . , . . , . .
|-8-------------------------|--------0-----2-----------|
|-------5-----------5-------|--0-----0---------------2-|
|-------5-----------5---4p2-|-p0-----0-----------3-----|
|---------------------------|--------------------4-----|
|-0-----------0-------------|--------------------------|
|---------------------------|--3-----------2-----------|


, . . , . . , . . , . .   , . . , . . , . . , . .
|-------------------------|-------7-----5---------0-|
|-4-------------------5-7-|-8-----8-----------5-----|
|-------4-----------4-----|-------9-----------5-----|
|-------4-----------4-----|-------9-----------7-----|
|-2-----------0-----------|-------------0-----------|
|-------------------------|-0-----------------------|


, . . , . . , . . , . .
|-2-----------------------||
|-------0-----------------||
|-------------------2-----|| D.S. %
|-------1-----------1-----|| al Coda
|-2-----------2-----------||
|-------------------------||


Coda
$ , . . , . . , . . , . .   , . . , . . , . . , . .
||-------0-----------0-----|-------0-----------0-----|
||-----0---0-------0---0---|-----0---0-------0---0---|
||---0-------0---0-------0-|---0-------0---0-------0-|
||-------------------------|-------------------------|
||-------------7-----------|-5-----------5-----------|
||-0-----------------------|-------------------------|


, . . , . . , . . , . .   , . . , . . , . . , . .
|-------0-----------0-----|-------0-----------0-----|
|-----0---0-------0---0---|-----0---0-------0---0---|
|---0-------0---0-------0-|---0-------0---0-------0-|
|-------------------------|-------------------------|
|-3-----------3-----------|-2-----------2-----------|
|-------------------------|-------------------------|


, . . , . . , . . , . .   , . . , . . , . . , . .
|-------0-----------0-----|-------0-----------0-----|
|-----1---1-------1---1---|-----0---0-------0---0---|
|---2-------2---2-------2-|---0-------0---0-------0-|
|-------------------------|-------------------------|
|-0-----------0-----------|-------------------------|
|-------------------------|-3-----------3-----------|


, . . , . . , . . , . .   , . . , . . , . . , . .
|-------0-----------0-----|-------0-----------0-----|
|-----0---0-------0---0---|-----0---0-------0---0---|
|---2-------2---2-------2-|---2-------2---2-------2-|
|-------------------------|-------------------------|
|-------------------------|-------------------------|
|-2-----------2-----------|-1-----------1-----------|


, . . , . . , . . , . .     , . . , . . , . . , . .
|-------0-----7-----------|-------<12>---<5>----------||
|-----0-----0-------------|-------<12>---<5>----------||
|--/4-----9---------------|-------<12>---<5>----------|| Fine.
|-------------------------|---------------------------||
|-------------------------|---------------------------||
|-0----------------<7>----|-<12>----------------------||


Вверх

A Fistful Of Dollars

e|------------|
b|----3-----3-|
G|0h2---2-----|
D|--------0---|
A|------------|
E|------------|

Rythm Figure 2
(acoustic, played with fingers)

e|-----------------------------|
b|--------1--------1---------1-|
G|--2---------2--------2-------|
D|3---3-----3---3----3---3-----|
A|3-----3---3-----3--3-----3---|
E|-----------------------------|

Rythm Figure 3
(acoustic, played with fingers)

e|-------------------------------------------------|
b|--------1--------3---------3---------6---------6-|
G|--2---------4--------4---------7---------7-------|
D|3---3-----5---5----5---5-----8---8-----8---8-----|
A|3-----3---5-----5--5-----5---8-----8---8-----8---|
E|-------------------------------------------------|

Whistled part tabbed for guitar

e|-------------------------------------------------|
b|----------5--6--8--6--5--------------------------|
G|----7--------------------7--5-------5--7---------|
D|-7-------------------------------7---------------|
A|-------------------------------------------------|
E|-------------------------------------------------|
|__________________Rythm Figure 1__________________|

e|-------------------------------------------------|
b|----------5--6--8--6--5--------------------------|
G|----7--------------------7--5-------5------------|
D|-7-------------------------------7-----7---------|
A|-------------------------------------------------|
E|-------------------------------------------------|
|______Rythm Figure 1________|____Rythm Figure 2___|

e|---------------------------------------5---------|
b|----------5--6--8--6--5-----5----6--8------------|
G|----7--------------------7-----------------------|
D|-7-----------------------------------------------|
A|-------------------------------------------------|
E|-------------------------------------------------|
|__________________Rythm Figure 1__________________|

e|-8--5--5--------9--5--5--------------------------|
b|----------6--------------6--------8--------------|
G|-------------------------------7-----------------|
D|-------------------------------------------------|
A|-------------------------------------------------|
E|-------------------------------------------------|
|____Rythm Figure 1____|_______Rythm Figure 3______|

e|-------------------------------------------------|
b|----5--6-----------------------------------------|
G|-7--------------7--5--7--------------------------|
D|-------------------------------------------------|
A|-------------------------------------------------|
E|-------------------------------------------------|
|____Rythm Figure 3____|_____Rythm Figure 1________|

1st Guitar Solo
(clean electric)

e|--------------------------------------------------------------------|
b|----------------------------5--6--5---------------------------------|
G|----7-5-7------7-5-7-----7-----------7--5-----5--7-5-7---5----------|
D|-7----------7---------7--------------------7----------------7-------|
A|--------------------------------------------------------------------|
E|--------------------------------------------------------------------|

e|-------------------------------5------------------------------------|
b|-------------------------6--8-----8--6--5-----5--6-5-6--6--5--------|
G|----7-5-7------7-5-7--5--------------------5------------------------|
D|-7----------7------------------------------------------------7--5--7|
A|--------------------------------------------------------------------|
E|--------------------------------------------------------------------|

e|-------------------------|
b|-8-----6-----------------|
G|---------------7--5--7---|
D|-------------------------|
A|-------------------------|
E|-------------------------|

2nd Guitar Solo
(clean electric)

e|-------------------------------------------------|
b|----------5--6--8--6--5--------------------------|
G|----7--------------------7--5-------5------------|
D|-7-------------------------------7-----7---------|
A|-------------------------------------------------|
E|-------------------------------------------------|

e|-------------5--6--5-----------------------------|
b|----6-----8-----------8--6--8----6--5------------|
G|-5-------------------------------------7---------|
D|-------------------------------------------------|
A|-------------------------------------------------|
E|-------------------------------------------------|

e|----5--8-----5---5-----------5--10-----5---------|
b|-6------------------6-----6---------------6------|
G|---------------------------------------------7---|
D|-------------------------------------------------|
A|-------------------------------------------------|
E|-------------------------------------------------|

e|-5-----------5-----------------------------------|
b|----6-----------6--8-----5-----------------------|
G|-------7-----------------------------------------|
D|-------------------------------7-----------------|
A|-------------------------------------------------|
E|-------------------------------------------------|

e|----------------------------------5--------------|
b|----------5--6--5--------------------------------|
G|----7--------------7--5----7---------------------|
D|-7-----------------------------------------------|
A|-------------------------------------------------|
E|-------------------------------------------------|

Вверх

Padre Ramirez

e|------------------------------------------------------------------|
b|-1-3-5-5-5-5--6-5--3-1--3-3-1------0--1-1-1-1--3-1-0--0-----------|
G|-2-4-5-5-5-5--7-5--4-2--4-4-2----2-------------------2------------|
D|------------------------------------------------------------------|
A|------------------------------------------------------------------|
E|------------------------------------------------------------------|

e|-----0-0-0-0-1-0----------------0--------------------------|
b|-1-3------------3--1-1-3-3-3-3----3-1-0-1-1-1-1-3--1--0----|
G|--------------------------------------------------------2--|
D|-----------------------------------------------------------|
A|-----------------------------------------------------------|
E|-----------------------------------------------------------|

e|-------0-0-0-0--1-0------------------------------------------|
b|--1-3----------------3-1-3-3-1--------0--1-1-1-1--3-1-0---0--|
G|-----------------------------------2--------------------2----|
D|-------------------------------------------------------------|
A|-------------------------------------------------------------|
E|-------------------------------------------------------------|

e|--------------------------------------------------------------------|
b|---1-3-5-5-5-5-5--6-5-3-1--3-3-3-3--5-3-1-0-1-1-1-1--3-----1---0----|
G|------------------------------------------------------------------2-|
D|--------------------------------------------------------------------|
A|--------------------------------------------------------------------|
E|--------------------------------------------------------------------|

e|-------------------------------------------------------------------------|
b|--6---8--10-10-10-10--11-10-8-6-8-8-6----3--5-6-6-6-6-8-8-6-5-3-5--5*-5*-|
G|--7---9--10-10-10-10-----------------------------------------------------|
D|-------------------------------------------------------------------------|
A|-------------------------------------------------------------------------|
E|-------------------------------------------------------------------------|


e|-1-3--5-5-5-5-6-5-3-1-3-3-3-3-5-3-1--0-1-1-1-1-3--1--0-------0-----------|
b|-----------------------------------------------0----------------3--------|
G|-------------------------------------------------------------------------|
D|-------------------------------------------------------------------------|
A|-------------------------------------------------------------------------|
E|-------------------------------------------------------------------------|

e|-----------------------------------------------------------0----3-----5--|
b|------------1--------------------1-------------------1-------1-----------|
G|-------2------------------2--------------------2--------2----------------|
D|---0------3-----------0------3-------------0------3----------------------|
A|-0-----------------0-------------------0---------------------------------|
E|-------------------------------------------------------------------------|

e|--1-0----3----1-0-----3---1-0----3----1-0---3---1-0---3---1-0-------------|
b|------3-----3------3----3------3---3------3---3-----3---3-----1-3-1-0-1---|
G|--------------------------------------------------------------------------|
D|--------------------------------------------------------------------------|
A|--------------------------------------------------------------------------|continude on
E|--------------------------------------------------------------------------|next lines

e|---------------------------------------------------------------------|
b|-0-------------------------------------------------------------------|
G|----2-4-2-0-4-2------------------------------------------------------|
D|-----------------3-5-3-2-3-------------------------------------------|
A|----------------------------5----------------------------------------|
E|---------------------------------------------------------------------|

Вверх