Evanescence

Anywhere

Away From Me

Breath No More
Bring Me To Life
Bring Me To Life (2 вариант)
Вверх

Anywhere

[CHORUS:]
la       mi          fa#-
We're leaving here tonight
re
There's no need to tell anyone
si-          mi
They'd only hold us down
la    mi       fa#-
So by the morning light
re
We'll be half way to anywhere
si-                mi        la
Where love is more than just your name

I have dreamt of a place for you and I
No one knows who we are there
All I want is to give my life only to you
I've dreamt so long I cannot dream anymore
Let's run away, I'll take you there

[Chorus]

si-         do#-
Forget this life
re
Come with me
mi
Don't look back you're safe now
si-          do#-
Unlock your heart
re
Drop your guard
mi
No one's left to stop you

Forget this life
Come with me
Don't look back you're safe now
Unlock your heart
Drop your guard
No one's left to stop you now

[Chorus] 

Вверх

Away From Me

F                       G
I hold my breath as this life starts to take its toll
F         G
I hide behind a smile as this perfect plan unfolds
F
but oh, God, I feel I've been lied to
G
lost all faith in the things I have achieved

and I

[chorus]
F               G#
I've woken now to find myself
C              Eb
in the shadows of all I have created
F                  G#
I'm longing to be lost in you
C
(away from this place I have made)
Eb
won't you take me away from me

F       G
Crawling through this world as disease flows through my veins
F          G
I look into myself, but my own heart has been changed
F
I can't go on like this
G
I loathe all I've become

[Chorus]
F                                C
Lost in a dying world i reach for something more
F                               C
I have grown so weary of this lie I live

[Chorus] 

Вверх

Breath No More

Verse 1:
D          G             Bm            G     D
I've been looking in the mirror for so long
G                 Bm             G     D
That I've come to believe my soul's on the other side
D       G      D      Bm         G
All the little pieces fallen, shatter
D         G   D            Bm            G
Shards of me, too sharp to put back together
D            G
Too small to matter
D              G         Bm      G           D
But big enough to cut me into so many little pieces
D         G       D
If I try to touch her

Chorus:
G     D      D G
and I bleed, I bleed
G     D        Bm        G  D
And I breathe, I breathe no more

Verse 2:

D      G             Bm         G                D
Take a breath and I try to draw from my spirit's well
G             Bm           G        D
Yet again you refuse to drink like a stubborn child
D       G      D       Bm             D      G
Lie to me, convince me that I've been sick forever
D           G   D         Bm            G
And all of this will make sense when I get better

D          G          Bm                 D       G
I know the difference between myself and my reflection
D      Bm                G
I just can't help but to wonder
D           G      D
Which of us do you love

Chorus:
G     D     D G
so I bleed, I bleed
G     D        Bm        G
And I breathe, I breathe no
D  G     D
Bleed, I bleed
D      G       D G
And I breathe, I breathe
D Bm       D Bm      G  D
I breathe, I breathe no more




Вверх

Bring Me To Life

Tuning
Drop-D tuning .
e ---------------
B ---------------
G ---------------
D ---------------
A ---------------
D ---------------
----------------------------------------------------
Intro/Verse
(Transcribed from keyboard)
~ - short ring
E5 (1) E5 (2)
e -------------|-------------------|
B ---------5~--|-------------5-----|
G -4~--4-5~--5~|----4--4-5-4---4~--|
D ---2---------|-2~---2------------|
A -------------|-------------------|
D -------------|-------------------|
1 2
How can you see into my eyes like open doors
1 2
Leading you down into my core, where I've become so numb
(Guitar - Distortion)
E5
e -------------------------------------
B --------------------------------5~---
G -------------------------------------
D -------------------------------------
A -22-22-22-22-2xx-2--22-22-222--------
D -22-22-22-22-2xx-2--22-22-222-2/-----
E/C5
e -------------------------------------
B -------------------------------------
G --------------------------------5^~--
D -------------------------------------
A -33-33-33-33-3xx-3--33-33-333--------
D -22-22-22-22-2xx-2--22-22-222-2/-----
E5
Without a soul,
E/C5
my spirit's sleeping somewhere cold.
E5 E/C5..
Until you find it there, and lead it back home
-------------------
Chorus
E5 G5 D5 E5
e ----------------------
B ----------------------
G ----------------------
D --5-----7----7----2---
A --2-----5----0----2---
D --2-----5----0----2---
E5
Wake me up inside
G5
Wake me up inside
D5
Call my name and
E5
Save me from the dark
C5 D5 E5
e -----------------------------------------------------------------
B -----------------------------------------------------------------
G -----------------------------------------------------------------
D --5-2-52-22-222-/--7-5-75-54-444---------------------------------
A --3-3-33-33-333-/--5-5-55-55-555--22-22-22-22-2xx-2--22-22-22-2--
D -------------------0---0-----0----22-22-22-22-2xx-2--22-22-22-2--
C5 D5 E5
Bring me to life...
------------
Verse 2
(Guitar - Distortion)
E5
e -------------------------------------
B --------------------------------5~---
G -------------------------------------
D -------------------------------------
A -22-22-22-22-2xx-2--22-22-222--------
D -22-22-22-22-2xx-2--22-22-222-2/-----
E/C5
e -------------------------------------
B -------------------------------------
G --------------------------------5^~--
D -------------------------------------
A -33-33-33-33-3xx-3--33-33-333--------
D -22-22-22-22-2xx-2--22-22-222-2/-----
E5 E/C5
Now that I know what I'm without, you can't just leave me.
E5
Breathe into me... make me real.
E/C5
Bring me to life.
---------------------
Bridge
e ---------------
B ---------------
G ---------------
D ---------------
A -----------2---
D --2--4--5------
C5 E5 D5 E5
e ---------------------------
B ---------------------------
G --5------------------------
D --5----2---0---2-----------
A --3----2---0---2--------2--
D -------2---0---2--4--5-----
C5 E5 D5 B5
e --------------------
B --------------------
G --5-----------------
D --5---2---0---4-----
A --3---2---0---2-----
D ------2---0---------
C5 E5 D5
Frozen inside without your touch,
E5
without your love. Darling,
C5 E5 D5 B5
Only you are the life among the dead...
E5
e -------------------------------------
B --------------------------------5~---
G -------------------------------------
D -------------------------------------
A -22-22-22-22-2xx-2--22-22-222--------
D -22-22-22-22-2xx-2--22-22-222-2/-----
E/C5
e -------------------------------------
B -------------------------------------
G --------------------------------5^~--
D -------------------------------------
A -33-33-33-33-3xx-3--33-33-333--------
D -22-22-22-22-2xx-2--22-22-222-2/-----
E5
(All of this time, I can't believe I couldn't see
Kept in the dark, but you were there in front of me.)
E/C5
I've been sleeping a thousand years, it seems
got to open my eyes to everything.
E5
(Without a thought, without a voice, without a soul...
Don't let me die here.
E/C5
There must be something more
Bring me to life.

Вверх

Bring Me To Life (2 вариант)

E||------|------|------|------|------|------|------|------|------|------|------|
B||------|------|------|------|------|------|------|------|------|------|------|
G||------|------|------|------|------|------|------|------|------|------|------|
D||------|------|------|------|------|------|------|------|------|------|------|
A||------|------|------|------|------|------|------|------|------|------|------|
E||------|------|------|------|------|------|------|------|------|------|------|

------|-------------------|--------------------------|
------|-------------------|--------------------------|
------|-------------------|--------------------------|
------|--2----------------|--2-2--2-2--2-2--2-2------|
------|--2----------------|--2-2--2-2--2-2--2-2------|
------|--0----------------|--0-0--0-0--0-0--0-0------|

----------------------------|--------------------------|
----------------------------|--------------------------|
----------------------------|--5-5--5-5--5-5--5-5------|
---2-2--2-2--2-2--2-2--2-2--|--5-5--5-5--5-5--5-5------|
---2-2--2-2--2-2--2-2--2-2--|--3-3--3-3--3-3--3-3------|
---0-0--0-0--0-0--0-0--0-0--|--3-3--3-3--3-3--3-3------|

----------------------------|--------------------------|
----------------------------|--------------------------|
---5-5--5-5--5-5--5-5--5-5--|--------------------------|
---5-5--5-5--5-5--5-5--5-5--|--2-2--2-2--2-2--2-2------|
---3-3--3-3--3-3--3-3--3-3--|--2-2--2-2--2-2--2-2------|
---3-3--3-3--3-3--3-3--3-3--|--0-0--0-0--0-0--0-0------|

----------------------------|--------------------------|
----------------------------|--------------------------|
----------------------------|--5-5--5-5--5-5--5-5------|
---2-2--2-2--2-2--2-2--2-2--|--5-5--5-5--5-5--5-5------|
---2-2--2-2--2-2--2-2--2-2--|--3-3--3-3--3-3--3-3------|
---0-0--0-0--0-0--0-0--0-0--|--3-3--3-3--3-3--3-3------|

----------------------------|----------||------------------------|
----------------------------|----------||------------------------|
---5-5--5-5--5-5--5-5--5-5--|----------||*-----------------------|
---5-5--5-5--5-5--5-5--5-5--|----------||*--2----2---2---2--2----|
---3-3--3-3--3-3--3-3--3-3--|----------||---2----2---2---2--2----|
---3-3--3-3--3-3--3-3--3-3--|----------||---0----0---0---0--0----|

-----------------------|-----------------------|-----------------------||
-----------------------|-----------------------|-----------------------||
-----------------------|--7----7---7---7--7----|----------------------*||
--5----5---5---5--5----|--7----7---7---7--7----|--2----2----5----7----*||
--5----5---5---5--5----|--5----5---5---5--5----|--2----2----3----7-----||
--3----3---3---3--3----|-----------------------|--0----0----0----0-----||

-----------------------------|------------------------------|
-----------------------------|------------------------------|
----------------------x-x-4~-|------------------------------|
--2-2--2-2--2-2--2-2--x-x----|--2-2--2-2--2-2--2-2--2-2-2-2-|
--2-2--2-2--2-2--2-2--x-x----|--2-2--2-2--2-2--2-2--2-2-2-2-|
--0-0--0-0--0-0--0-0--x-x----|--0-0--0-0--0-0--0-0--0-0-0-0-|

----------------------------|------------------------------|
----------------------------|------------------------------|
----------------------------|--5-5--5-5--5-5--5-5--5-5-5-5-|
---2-2--2-2--2-2--2--2-2-5--|--5-5--5-5--5-5--5-5--5-5-5-5-|
---2-2--2-2--2-2--2--2-2----|--3-3--3-3--3-3--3-3--3-3-3-3-|
---0-0--0-0--0-0--0--0-0----|--3-3--3-3--3-3--3-3--3-3-3-3-|

-----------------------------|------------------------------|
-----------------------------|------------------------------|
---5-5--5-5--5-5--5--5-5-5-5-|------------------------------|
---5-5--5-5--5-5--5--5-5-5-5-|--2-2--2-2--2-2--2-2--2-2-2-2-|
---3-3--3-3--3-3--3--3-3-3-3-|--2-2--2-2--2-2--2-2--2-2-2-2-|
---3-3--3-3--3-3--3--3-3-3-3-|--0-0--0-0--0-0--0-0--0-0-0-0-|

-----------------------------|------------------------------|
-----------------------------|------------------------------|
-----------------------------|--5-5--5-5--5-5--5-5--5-5-5-5-|
---2-2--2-2--2-2--2--2-2-2-2-|--5-5--5-5--5-5--5-5--5-5-5-5-|
---2-2--2-2--2-2--2--2-2-2-2-|--3-3--3-3--3-3--3-3--3-3-3-3-|
---0-0--0-0--0-0--0--0-0-0-0-|--3-3--3-3--3-3--3-3--3-3-3-3-|

-----------------------------|---||------------------------|
-----------------------------|---||------------------------|
---5-5--5-5--5-5--5--5-5-5-5-|---||*-----------------------|
---5-5--5-5--5-5--5--5-5-5-5-|---||*--2----2---2---2--2----|
---3-3--3-3--3-3--3--3-3-3-3-|---||---2----2---2---2--2----|
---3-3--3-3--3-3--3--3-3-3-3-|---||---0----0---0---0--0----|

-----------------------|-----------------------|-----------------------||
-----------------------|-----------------------|-----------------------||
-----------------------|--7----7---7---7--7----|----------------------*||
--5----5---5---5--5----|--7----7---7---7--7----|--2----2----5----7----*||
--5----5---5---5--5----|--5----5---5---5--5----|--2----2----3----7-----||
--3----3---3---3--3----|-----------------------|--0----0----0----5-----||

----------------------||--------------------|-------------------|
----------------------||--------------------|-------------------|
----------------------||*--5----------------|--7----------------|
--2----2----5----9----||*--5----------------|--7----------------|
--2----2----3----9----||---3----------------|--5----------------|
--0----0----0----7----||--------------------|-------------------|

------------------------------|------------------------------||
------------------------------|------------------------------||
------------------------------|-----------------------------*||
--2-2--2-2--2-2--2-2--2-2-2-2-|---2-2--2-2--2-2--2--2-2-2-2-*||
--2-2--2-2--2-2--2-2--2-2-2-2-|---2-2--2-2--2-2--2--2-2-2-2--||
--0-0--0-0--0-0--0-0--0-0-0-0-|---0-0--0-0--0-0--0--0-0-0-0--||

----------------------||--------------------|--------------------|
----------------------||--------------------|--------------------|
----------------------||*--2----------------|--------------------|
----------------------||*--2----------------|--5--------2--------|
-----------------2----||---0----------------|--5--------2--------|
--0----2----3---------||--------------------|--3--------0--------|

-------------------|-----------------------||-------------------|
-------------------|-----------------------||-------------------|
-------------------|----------------------*||-------------------|
--4----------------|----------------------*||--4----------------|
--4----------------|-----------------2-----||--4----------------|
--2----------------|--0----2----3----------||--2----------------|

------------------||-------------------------------|
------------------||-------------------------------|
------------------||*------------------------------|
------------------||*--2-2--2-2--2-2--2-2--2-2-2-2-|
------------------||---2-2--2-2--2-2--2-2--2-2-2-2-|
------------------||---0-0--0-0--0-0--0-0--0-0-0-0-|

-----------------------------|------------------------------|
-----------------------------|------------------------------|
-----------------------------|------------------------------|
---2-2--2-2--2-2--2--2-2-2-2-|--2-2--2-2--2-2--2-2--2-2-2-2-|
---2-2--2-2--2-2--2--2-2-2-2-|--2-2--2-2--2-2--2-2--2-2-2-2-|
---0-0--0-0--0-0--0--0-0-0-0-|--0-0--0-0--0-0--0-0--0-0-0-0-|

------------------------------||------------------------------|
------------------------------||------------------------------|
-----------------------------*||--5-5--5-5--5-5--5-5--5-5-5-5-|
---2-2--2-2--2-2--2--2-2-2-2-*||--5-5--5-5--5-5--5-5--5-5-5-5-|
---2-2--2-2--2-2--2--2-2-2-2--||--3-3--3-3--3-3--3-3--3-3-3-3-|
---0-0--0-0--0-0--0--0-0-0-0--||------------------------------|

-----------------------------||------------------------|-----------------------|
-----------------------------||------------------------|-----------------------|
---7-7--7-7--7-7--7--7-7-7-7-||*-----------------------|-----------------------|
---7-7--7-7--7-7--7--7-7-7-7-||*--2----2---2---2--2----|--5----5---5---5--5----|
---5-5--5-5--5-5--5--5-5-5-5-||---2----2---2---2--2----|--5----5---5---5--5----|
-----------------------------||---0----0---0---0--0----|--3----3---3---3--3----|

-----------------------|--------------------||----------------------|
-----------------------|--------------------||----------------------|
--7----7---7---7--7----|--------------4----*||----------------------|
--7----7---7---7--7----|--------------2----*||--2----2----5----7----|
--5----5---5---5--5----|--------------2-----||--2----2----3----7----|
-----------------------|--------------0-----||--0----0----0----5----|

-------------------|-------------------|------------------------------|
-------------------|-------------------|------------------------------|
--5----------------|--7----------------|------------------------------|
--5----------------|--7----------------|--2-2--2-2--2-2--2-2--2-2-2-2-|
--3----------------|--5----------------|--2-2--2-2--2-2--2-2--2-2-2-2-|
-------------------|-------------------|--0-0--0-0--0-0--0-0--0-0-0-0-|

----------------------|-------------------|-------------------|
----------------------|-------------------|-------------------|
----------------------|--5----------------|--7----------------|
----------------------|--5----------------|--7----------------|
----------------------|--3----------------|--5----------------|
--0----2----3----5----|-------------------|-------------------|

-------------------|------------------|------------------|------------------|
-------------------|------------------|------------------|------------------|
-------------------|------------------|------------------|------------------|
--2----------------|------------------|------------------|------------------|
--2----------------|------------------|------------------|------------------|
--0----------------|------------------|------------------|------------------|

------------------|------------------|------------------|------------------|
------------------|------------------|------------------|------------------|
------------------|------------------|------------------|------------------|
------------------|------------------|------------------|------------------|
------------------|------------------|------------------|------------------|
------------------|------------------|------------------|------------------|

------------------||
------------------||
------------------||
------------------||
------------------||
------------------||


How can you see into my eyes like open doors
leading you down into my core
where i've become so numb
without a soul my spirit sleeping somewhere cold
until you find it there and lead it back home

wake me up inside
wake me up inside
call my name and save me from the dark
bid my blood to run
before i come undone
save me from the nothing i've become

Now that i know what i'm without
you can't just leave me
breathe into me and make me real
bring me to life

wake me up inside
wake me up inside
call my name and save me from the dark
bid my blood to run
before i come undone
save me from the nothing i've become
bring me to life

Frozen inside without your touch
without your love darling
only you are the life among the dead

All this time i can't believe i couldn't see
kept in the dark but you were there in front of me
i've been sleeping a thousand years it seems
got to open my eyes to everything
without a thought without a voice without a soul
don't let me die here
there must be something more
bring me to life


wake me up inside
wake me up inside
call my name and save me from the dark
bid my blood to run
before i come undone
save me from the nothing i've become
bring me to life

Вверх