AC/DC


Big Gun



Highway To Hell



Night Prowler



The Jack



Thunderstruck


Вверх


Big Gun

Noises from Brian

Riot on the radio, pictures on the TV
Invader man take what he can, shootout on the silver screen
Stickinґ ґem up and knocking them down, living out a fantasy
Thereґs a bad man cruising around in a big black limousine
Donґt let it be wrong, donґt let it be right
Get in his way, youґre dead in his sights

Big gun
Big gun
Number one
Big gun
Big gun kick the hell out of you

Terminators, Uzi makers, shootinґ up Hollywood
Snakes alive with a forty-five, getting off and doing no good.
If you ainґt wise, theyґll cannibalise, tear flesh off you
Classified, lady killers, prayinґ in the human zoo
They saddle you up and take you to town
Better look out, when he come around

Big gun
Big gun
Number one
Big gun
Big gun kick the hell out of you

Show down
Yeah

LEAD BREAK + more noises from Brian Johnson

Big gun
Big gun
Number one
mmmmmmmmmmm
aauuugh aauuugh
yaay yaaay
mmmmmmmmmmms
buba buba buba buba buba buba
Big gun, gotta hot one
Big gun, gotta number one
Big gun, loaded and cocked
Big gun, hot hot hot
Got big gun, ready or not
Big gun, give it, give it a shot, come on

(During next two lines Big Gun is repeated in background)
Terminator, Uzi Maker
Regulators, gonna get you later

Big gun kick the hell out of you


Two guitars in this one -- guitar 1, which plays Riff A and all
the solos, is a clean electric.  Guitar 2, which plays the
rest, is distorted.  To get it "officially," use both guitars;
if it doesnґt matter (probably), one will do fine.

Lyrics are questionable at best since
I can barely hear them -- might want
to see a doctor about that throat.

=========================== cut here ==========================

Riff A:  2x in the intro
E|-GUITAR 1=>-3---0----0--0-------|-----------3---0---0-----|
B|------------------3--------3--0-|-----------------3-----3-|
G|--------------------------------|-------------------------|
D|--2--2--<==GUITAR 2-------------|--2--2-------------------|
A|--2--2--------------------------|--2--2-------------------|
E|--0--0--------------------------|--0--0-------------------|

Riff B:  (play once with each line of lyrics)
E|------------------------------------|
B|------------------------------------|
G|------------------------------------|
D|--------0---------------------------|
A|------2-----0-4---0-2---0-4-----2---|
E|--0-0-----0-----0-----0-----0-3---3-|
Iґm playing on the radio
Pictures on the TV
And every man take a-what he can
Shoot ґem on the silver screen

Riff C:  (same timing as above)
E|------------------------------------|
B|------------------------------------|
G|--------0---------------------------|
D|------2-----0-4---0-2---0-4-----2---|
A|----0-----0-----0-----0-----0-3---3-|
E|------------------------------------|
Stickinґ the law, knockinґ them down
Livinґ out a fantasy


Riff B with:

Thereґs a bad man cruisinґ around
In a big black limousine


Riff D:
|  |  |    |   ||    |     |  |  |   |
B(vii)          A(v) B(vii)
Donґt let it be wrong,     donґt let it be right

A(v)      G(iii)     D#/F        Em
Give into spite, and double your sights

======
CHORUS
======

Riff A with:
Big gun -- big gun, number one
Big gun

E|-----------------------------------| G
B|-----------------------------------| T
G|----0------------------------------| R
D|------2--0------------------2------|
A|--------------2P0---2-0------------| #
E|-------------------------3--0------| 2
Big gun, can you hit on the loon
(I SAID I couldnґt hear the words!)


[Riff B twice]


VERSE 2
=======
With Riff B:
Terminatorґs using acres
Shooting up Hollywood
Snakes he ate with a funny fad
Gettinґ up ґnґ doinґ no good

With Riff C:
If you ainґt wise, uncover the lies
To fuss of you

With Riff B:
Classified lady killers
Playinґ in the U.N. too

With Riff D:
The sooner you are, youґre taking the town
Better look out when heґs cominґ ґround

[CHORUS]

solo:
E|--3P0-0--(GTR 1)---------------------------|
B|-----3-------------------------------------|(GTR 2)
G|-------------------------------------------|
D|--------------------------2-----5----2P0H2-|
A|-------------------------------------------|
E|-------------------------------------------|


E|---------------------------------------------------------|
B|---------------------------------------------------------|
G|---------------------------------------------------------|
D|---5--4P2P0--4P2P0-2H5P2P0-----------0-----------2-----2-|
A|-----------------------------2P0---2---2P0---------------|
E|---------------------------------3---------3-2-0---3P0---|
etc. etc.

[The soloing is in E minor (I think) -- just go crazy and youґll
get it close enough]

Repeat the CHORUS once more and then free-form it to the end.

Вверх


Highway To Hell

INTRO:
A          D/f#  G      D/f#  G     D/F#  G     D/F#   A
E|-------------------------------------------------------------|
B|-2--2--2----3--3--3------3--3--3-----3--3--3------------2--2-|
G|-2--2--2----2--2--0------2--2--0-----2--2--0------2-----2--2-|
D|-2--2--2----0--0--0------0--0--0-----0--0--0------0-----2--2-|
A|-0--0--0------------------------------------------------0--0-|
E|------------2--2--3------2--2--3-----2--2--3------2----------|

A A A
D D/F# G              D D/F# G
Livin' easy,        livin' free,
D D/F# G       D/F#    A A
Season ticket on a one way ride
A A A           D D/F# G             D D/F# G
Askinґ nothin,      leave me be.
D D/F# G     D/F#   A A
Takin' ev'rythin' in my stride.

Donґt need reason, donґt need rhyme,
Ainґt nothinґ iґd rather do.
goinґ down, party time.        E5  <-----instead of an A.
my friends are gonna be there too.

Chorus
A    A  A   D/A      G   --†
iґm on a highway to hell             Repeat
D/F#     A    A  A   D/A      G
on the   highway to hell          --†

Additional verses

no stop signs, speed limit,
nobodyґs gonna slow me down.
like a wheel, gonna spin it.
nobodyґs gonna mess me around.

Hey, satan, payґnґ my dues,
playinґ in a rockinґ band.
hey, momma, look at me.
Iґm on my way to the promised land.

Вверх


Night Prowler

Night Prowler
First: Tune down a half step!

(Malcolm) Intro
A5      D5       Csus2  D5  A5  D5  Csus2  D5
e|---------------------------|------------------|--------------|
b|---------3--------3------3-|-----3---3------3-|--------------|
g|-2-------2--------0------2-|-2---2---0------2-|--------------|
D|-2-------0---------------0-|-2---0----------0-|--------------|
A|-0----------------3--------|-0-------3--------|--------0--3--|
E|---------------------------|------------------|--0--3--------|

..Pattern1.........................endpattern.
/  A5      D5      Csus2      D5
e|--------------------------------|--------------|
b|----------3-------------3----3--|--------------|
g|--2-------2---------0-0------2--|--------------|
D|--2-------0------------------0--|--------------|
A|--0---------------3-------------|--------0--3--|
E|--------------------------------|--0--3--------|

..Pattern2.........................endpattern.
/  A5      D5      Csus2      Dsus2
e|-----------------------------0-----------------|
b|----------3-------3-3-3-3-3--3-----------------|
g|--2-------2-------0-0-0-0-0--2-----------------|
D|--2-------0------------------0-----------------|
A|--0---------------3-3-3-3-3--------------------|
E|-----------------------------------------------|

(Angus w/pattern 1)
e|-------------------------------------------------------------|
b|-8-10------------------10-10--8-5---8---10----------10--8----|
g|-----------------------------------------------------------7-|
D|-------------------------------------------------------------|
A|-------------------------------------------------------------|
E|-------------------------------------------------------------|

e|-------------------------------------------------------------|
b|-------------------------------------------------------------|
g|-7-----8----9--12-14--------9---7-----5-----12-14----8--7--5-|
D|-------------------------------------------------------------|
A|-------------------------------------------------------------|
E|-------------------------------------------------------------|
(Angus w/pattern 2)
e|-------------------------------------------8-10--------------|
b|----------------------------------------5--------8-10---8--5-|
g|12-14----8---7------5---12-14----8---7--5--------------------|
D|-------------------------------------------------------------|
A|-------------------------------------------------------------|
E|-------------------------------------------------------------|
Pattern 3 (Verse)
A5      D         G           D
e|----------------------------------|
b|-------------------0--------------| X 2
g|-------------------0-----------2--|
D|-2-------4---------0-----------4--|
A|-0-------5---------------------5--|
E|----------------------------------|
( rat runs down the alley...)  Pattern 4 (played 4 times)
A5           D          G          D
e|-------------------------------------------------------|
b|-------------------------------------------------------|
g|-------------------------0-----------------------------|
D|-2------2-----4----------0----------4------------------|
A|-0------0-----5---------------------5-------------0--3-|
E|--------------------------------------------0--3-------|

Play Chorus w/Pattern 1 (3 1/2 X)
(...you shut out the light...)

e|--------------------------------------|  Pattern 5
b|-3--3--3--3--3--3--3--3--3--3--3--3---|
g|-0--0--0--0--0--0--2--2--2--2--2--2---|
D|-------------------0--0--0--0--0--0---|
A|-3--3--3--3--3--3---------------------|
E|--------------------------------------|
Solo w/fig.1 (Chorus-like)
e|-----------------------------------------------------------|
b|---------------------------------------8-9---8-10----9--10-|
g|-7--9--9-7-8-9-8-9--7--5-----------------------------------|
D|----------------------------7--------x---------------------|
A|-----------------------------------------------------------|
E|-----------------------------------------------------------|

e|-----------------------------------------------------------|
b|-/7---------------------------------------------------10---|
g|----5-6-7-5-6-7-5-6-7--5--6-7--5--6-7--9---7---9---------9-|
D|---------------------------------------------------2-/-----|
A|-----------------------------------------------------------|
E|-----------------------------------------------------------|

e|0----------------------------------------------------------|
b|---7-8--8-10----10--10--------10------13-15------15-----15-|
g|-----------------------------------------------------------|
D|-----------------------------------------------------------|
A|-----------------------------------------------------------|
E|-----------------------------------------------------------|
Pattern 6 (for Verse 2) 4 x
A5          A6          A7(no 3rd)       A6
e|-------------------------------------------------------------|
b|-------------------------------------------------------------|
g|-------------------------------------------------------------|
D|-2--2--2--2--4--4--4--4--5-----5--5-----5--4-----------------|
A|-0--0--0--0--0--0--0--0--0-----0--0-----0--0----------0----3-|
E|------------------------------------------------0--3---------|
Solo: w/patt.1

e|-------------------------------------------------5-----------|
b|----------------------------------------------------5--8--10-|
g|--7--9---------9--8--9-8--9--8-9-8-9-8-9--8--9---------------|
D|-------------------------------------------------------------|
A|-------------------------------------------------------------|
E|-------------------------------------------------------------|

e|--8-10--------8-5--3-5-0-3-----------------------------------|
b|--------------------------3-5--------------------------------|
g|-------------------------------5-------7-9-9-7-9-7-9-7-9-7-9-|
D|-------------------------------------------------------------|
A|-------------------------------------------------------------|
E|-------------------------------------------------------------|

e|-------------------------------------------------------------|
b|--------------------------------------------------------8-10-|
g|-9-9-9-9-----9-9-9-9--9-9-9-9--9-9-9---9-9-9-9----x--x-------|
D|-------------------------------------------------------------|
A|-------------------------------------------------------------|
E|-------------------------------------------------------------|

e|-5-3-0--8-5-0-5-3-0-----------------------------------------|
b|--------------------5-3-0-----------------------------------|
g|--------------------------5-2-0-----------------------------|
D|--------------------------------5-2-0-2-5---5-5-7-7-7-7-7-7-|
A|------------------------------------------------------------|
E|------------------------------------------3-----------------|

e|--------0----0----0---------------|
b|--------3----3----3---------------|
g|-x-----0----0----2----------------|
D|-----------------0----------------|
A|-------3----3----------------0--3-|
E|-----------------------0---3------|

e|-------------------------------------------------------------|
b|1--3----2-0-3--0-2--0-3-1-3-1-3-1-3-1---3-1-3-1-3-1----------|
g|-----------------------------------------------------5-7-9-x-|
D|-------------------------------------------------------------|
A|-------------------------------------------------------------|
E|-------------------------------------------------------------|

e|---------------5-----------------------5---------5-----5-----|
b|-------------5---5-8-10------x--8-10----8-5-8-10---8-5---/-8-|
g|7-9----------------------------------------------------------|
D|-------------------------------------------------------------|
A|-------------------------------------------------------------|
E|-------------------------------------------------------------|

e|-8-5-----5---------------------------------------------------|
b|-----8------5---8--5---------------------------------x--8-10-|
g|----------------------5--8--7--5--7--------------------------|
D|-------------------------------------7--5--7--5--19----------|
A|-------------------------------------------------------------|
E|-------------------------------------------------------------|

e|-----------------------------------------------7-8-7-8-7-8---|
b|8-10--10-----10--10--10--10--10--10--10--10----------------x-|
g|-------------------------------------------------------------|
D|-------------------------------------------------------------|
A|-------------------------------------------------------------|
E|---------------------------------------------0---------------|

Lyrics:
Night Prowler

Somewhere a clock strikes midnight
And thereґs a full moon in the sky
You hear a dog bark in the distance
You hear someoneґs baby cry

A rat runs down the alley
And a chill runs down your spine
Someone walks across your grave
And you wish the sun would shine
No oneґs gonna warn you
And no oneґs gonna yell ґAttackґ
And you donґt feel the steel
Till itґs hanging out your back

CHORUS:
Iґm your Night Prowler, asleep in the day
Iґm your Night Prowler, get out of my way
Look out for the Night Prowler, watch you tonight
Iґm the Night Prowler, when you turn out the light ...

Too scared to turn your light out
ґCos thereґs something on your mind
Was that a noise outside your window?
Whatґs that shadow on the blind?
As you lie there naked
Like a body in a tomb
Suspended animation
As I slip into your room

CHORUS

Solo

CHORUS

Iґm your Night Prowler, break down your door
Iґm your Night Prowler, crawling ґcross your floor
Iґm your Night Prowler, make a mess of you, yes I will
Night Prowler, and I am telling this to you
There ainґt nothing you can do
(Shazbot Nunu Nunu)


Вверх


The Jack

Вступление:

E||--------------------------|-------------------------|
B||--------------------------|-------------------------|
G||--------------------------|-------------------------|
D||--4--4--6--7--2--2--4--5--|--4--4--6--7--2--2--4--5-|
A||--------------------------|-------------------------|
E||--------------------------|-------------------------|

E|-------------------------|----------------------|
B|-------------------------|----------------------|
G|-------------------------|----------------------|
D|-4--4--6--7--2--2--4--5--|--------------2--3--4-|
A|-------------------------|--2--2--4--5--0--1--2-|
E|-------------------------|--0--0--0--0----------|

Куплет:
E|-------------------------|--------------------------|
B|-------------------------|--------------------------|
G|-------------------------|--------------------------|
D|-------------------------|--------------------------|
A|-2--2--4--4--5--5--4--4--|--2--2--4--4--5--5--4--4--|
E|-0--0--0--0--0--0--0--0--|--0--0--0--0--0--0--0--0--|

E|--------------------------|
B|--------------------------|
G|--------------------------|
D|--------------------------|
A|---2--2--4--4--5--5--4--4-|
E|---0--0--0--0--0--0--0--0-|

E|-------------------------|-------------------------|
B|-------------------------|-------------------------|
G|-------------------------|-------------------------|
D|-------------------------|--2--2--4--4--2--2--4--4-|
A|-2--2--4--4--5--5--4--4--|--0--0--0--0--0--0--0--0-|
E|-0--0--0--0--0--0--0--0--|-------------------------|

E|-------------------------|-------------------------|
B|-------------------------|-------------------------|
G|-------------------------|-------------------------|
D|-2--2--4--4--2--2--4--4--|-------------------------|
A|-0--0--0--0--0--0--0--0--|--2--2--4--4--5--5--4--4-|
E|-------------------------|--0--0--0--0--0--0--0--0-|

E|-------------------------|-------------------------|
B|-------------------------|-------------------------|
G|-------------------------|--4--4--4--4--4--4--4--4-|
D|-------------------------|--4--4--4--4--4--4--4--4-|
A|-2--2--4--4--5--5--4--4--|--2--2--2--2--2--2--2--2-|
E|-0--0--0--0--0--0--0--0--|-------------------------|

E|-------------------------|--------------------------|
B|-------------------------|--------------------------|
G|-2--2--2--2--2--2--2--2--|--------------------------|
D|-2--2--2--2--2--2--2--2--|--------------------------|
A|-0--0--0--0--0--0--0--0--|--2--2--4--4--5--5--4--4--|
E|-------------------------|--0--0--0--0--0--0--0--0--|

E|----------------------|
B|----------------------|
G|----------------------|
D|--------------2--3--4-|
A|--2--2--2--2--0--1--2-|
E|--0--0--0--0--0--0--0-|

Соло:

E|-----------------1--2----------------------------------------|
B|--------1--3-----------3--1--------------------------------3-|
G|-----2--------2--------------2--0--2--0-----0----------0---2-|
D|-----------------------------------------3-----3--0----1---4-|
A|-------------------------------------------------------1-----|
E|-------------------------------------------------------------|

E|----------0--2--------0--2--0--------------0--2---0--1--2--5-|
B|----0--3-----------0-----------3-----0--3--------------------|
G|-2--------------2-----------------2--------------------------|
D|-------------------------------------------------------------|
A|-------------------------------------------------------------|
E|-------------------------------------------------------------|

E|-2--1--2--0-----3--5--5--8-----5--3--1--3--3--5--3-1---3---1-|
B|-------------3--------------8------------------------3---3---|
G|-------------------------------------------------------------|
D|-------------------------------------------------------------|
A|-------------------------------------------------------------|
E|-------------------------------------------------------------|

E|-------------------------------------------------------------|
B|--------------------------------1----------------------------|
G|-0-2-0-2-0-2--0--2--0--2--0--------2--0----------------------|
D|-----------------------------3-----------3--0-----3-----0----|
A|-----------------------------------------------3-----3-----3-|
E|-------------------------------------------------------------|

E|-5-8-10----8-10-10-10-8----7-8--7--5--13--15--13--15--13-----|
B|--------10--------------10--------------------------------15-|
G|-------------------------------------------------------------|
D|-------------------------------------------------------------|
A|-------------------------------------------------------------|
E|-------------------------------------------------------------|

E|-13-15-13-12-10-8-10-8-------------5-5-4---3-1-----1-3--5--5-|
B|-----------------------10-8-10-8-8-------6------3------------|
G|-------------------------------------------------------------|
D|-------------------------------------------------------------|
A|-------------------------------------------------------------|
E|-------------------------------------------------------------|

E|-8--------------------------------------------8------8--|
B|----10--9--8--6-----8-----6----------------8--10--8--10-|
G|-----------------7-----7-----------7--------------------|
D|--------------------------------------------------------|
A|--------------------------------------------------------|
E|--------------------------------------------------------|

She gave me the queen
She gave me the king
She was wheelinґ and dealinґ
Just doinґ her thing
She was holdinґ a pair
But I had to try
Her deuce was wild
But my ace was high
But how was I to know
That sheґd been dealt with before
Said sheґd never had a full house
But I should have known
From the tattoo on her left leg
And the garter on her right
Sheґd have the card to bring me down
If she played it right

Sheґs got the jack
Sheґs got the jack
Sheґs got the jack
Sheґs got the jack
Sheґs got the jack
Sheґs got the jack
Sheґs got the jack
Sheґs got the jack
Sheґs got the jack, jack, jack, jack, jack, jack, jack
Sheґs got the jack

Poker face was her name
Poker face was her nature
Poker straight was her game
If she knew she could get you
She playґd ґem fast
And she playґd ґem hard
She could close her eyes
And feel every card
But how was I to know
That sheґd been shuffled before
Said sheґd never had a royal flush
But I should have known
That all the cards were cominґ
From the bottom of the pack
And if Iґd known what she was dealinґ out
Iґd have dealt it back

Sheґs got the jack
Sheґs got the jack
Sheґs got the jack
Sheґs got the jack
Sheґs got the jack
Sheґs got the jack
Sheґs got the jack
Sheґs got the jack
Sheґs got the jack, jack, jack, jack, jack, jack, jack
Sheґs got the jack

Вверх


Thunderstruck

Angus Young / Malcolm Young

h-hammer on
p-pull off
b bend
r release
P.M. palm mute
___ keep the note
~~~ hand vibrato



Rhythm figure 1 (Angus)
(B)
-------|--------------------------------|--------------------------------|
-----0h|4p0h7p0h4p0h7p0h4p0h7p0h4p0h7p0h|4p0h7p0h4p0h7p0h4p0h7p0h4p0h7p0h|
-------|--------------------------------|--------------------------------|
-------|--------------------------------|--------------------------------|
-------|--------------------------------|--------------------------------|
-------|--------------------------------|--------------------------------|

Verse:               Ah.______________________________________
(Em)                                           end Rhythm figure 1
|--------------------------------|--------------------------------|
|5p0h8p0h5p0h8p0h5p0h8p0h5p0h8p0h|5p0h8p0h5p0h8p0h5p0h8p0h5p0h8p0h|
|--------------------------------|--------------------------------|
|--------------------------------|--------------------------------|
|--------------------------------|--------------------------------|
|--------------------------------|--------------------------------|

with Rhythm figure 1
Ah._________________________________________
|                                |                                |

Ah._________________________________________
|                                |                                |


Ah.________________________________________
(B)
Rhythm figure 2 (Angus)                           end Rhythm figure 2
|-----------------------------------|--------------------------------|
|12p0h10p0h9p0h10p0h9p0h7p0h9p0h5p0h|7p0h4p0h5p0h4p0h5p0h4p0h5p0h4p0h|
|-----------------------------------|--------------------------------|
|-----------------------------------|--------------------------------|
|-----------------------------------|--------------------------------|
|-----------------------------------|--------------------------------|

with Rhythm figure 2 (39 times)
Ah.____________________         Ah._____________________
|                |                |                |               |
Ah.____________________  Thunder,  ah.____________________
|                |                |                 |               |
Thunder,  ah.___________________  Thunder,  ah.____________________
|                 |               |                 |               |
Thunder,  ah.___________________  Thunder,  ah.____________________
|                 |               |                 |               |
Thunder,  ah.___________________
|                 |               |

Thunder!
(B5)
Rhythm figure 3 (Malcolm)                       end Rhythm figure 3
P.M. - - - - - - - - - - - - - - - - - - - - - - - - - - - - - - -|
|----------------------------------|-------------------------------|
|----------------------------------|-------------------------------|
|------4-----4-----4---4-----4-----|---4-----4-----4---4-----4-----|
|------4-----4-----4---4-----4-----|---4-----4-----4---4-----4-----|
|----2---2-------2-------2-------2-|-2---2-------2-------2-------2-|
|----------------------------------|-------------------------------|

with Rhythm figure 3 (26 times)
Thunder         Thunder          Thunder
|         |    |           |    |           |

I was caught_       in the mid-dle of a rai-road track,_
|         |                    |                        |

____       (Thunder!)   I lookedґround,_      and I knew_
|         |                        |                    |

___ there was no turn-inґ back.     (Thunder!) My mind raced_
|                        |         |                        |

___    and I thought_  what_ could I do,____
|               |                      |                    |

(Thunder!)   And I knew_    there was no_ help, no help from
|                    |                  |                   |

you.   (Thunder!) Sound of the drums,                        Beat-inґ in my
Rhythm figure 4          end Rhythm figure 4
B5         A5 E5     A5       E5
|------|-----------------------|-------------------|------------------------|
|------|-----------------------|-------------------|------------------------|
|------|-----------------------|-------------------|------------------------|
|------|-----------------------|-4-----------2-----|---2---2----------------|
|------|-----------------------|-2-----------0-2---|---0---0---2------------|
|------|-----------------------|---------------0---|-----------0------------|

heart,          The thunder of drums,    yeah,       Tore me a-
|           |                  |               |                |

part                       Youґve been             thunder-
|           |        |                 |                    |

struck!                                      Rode down the
B5________________________________________________________
|          |         |          |                          |

highway,_ broke the limit,  we hit the town,____      Went through to
|                   |                  |           |                  |

Texas,_       yeah_ Texas,_ and we had some fun           We met some
B5___________________________________________________________________
|                   |                       |         |               |

girls,        some dancers who gave a good time,____    Broke all the
B5___________________________________________________________________
|                  |                       |           |              |

rules,  played all the fools, yeah,_ yeah, they, they, they blew our minds
B5________________________________________________________________________
|                      |                   |           |                   ||

I was shakinґ at the knees,                    Could I
Rhythm figure 5       end Rhythm figure 5        with Rhythm figure 5
B5     A5     E5                           A5   B5 A5 E5
|--------------------|---------------------------|------------------------|
|--------------------|---------------------------|------------------------|
|-4------2-----------|-----------------------2---|------------------------|
|-4------2------2----|-----------------------2---|------------------------|
|-2------0------2----|-----------------------0---|------------------------|
|---------------0----|---------------------------|------------------------|

come again please?_____               Yeah, the ladies were too kind.
Rhythm figure 6           end Rhythn figure 6
A5     B5  A5  E5                              A5
|--------------------------|--------------------|-------------------------|
|--------------------------|--------------------|-------------------------|
|--------------------------|-4---2--------------|--------------------2----|
|--------------------------|-4---2---2---------|--------------------2----|
|--------------------------|-2---0---2---------|--------------------0----|
|--------------------------|---------0----------|-------------------------|

Youґve been      thuder-struck,                              Thunder-
Rhythm figure 7           end Rhythm figure 7
with Rhythm figure 2 (35 times)
B5 A5 E5                    B5  A5        E5      A5     E5
|---------------|----------||--------------------|------------------------|
|---------------|----------||--------------------|------------------------|
|---------------|----------||--------------------|------------------------|
|---------------|----------||-4---2---------2----|-2----------------------|
|---------------|----------||-2---0---------0-2--|-0-------2--------------|
|---------------|----------||-----------------0--|---------0--------------|

with Rhythm figure 7 (3 times)
struck._  Yeah,_yeah, yeah, thuder-struck,
|         |                        |          |

Ooh,_______ thuder-struck.
|                  |            |          |

Yeah.__
B5_______________ B5_________________
|        |        |        |         |

Ooh, I was shakinґ at the knees,____                   Could I
A5     B5                                   A5     B5
guitar 1     _______________________________
|-------------------|------------------------|--------------------------|
|-------------------|------------------------|--------------------------|
|-------------------|------------------------|--------------------------|
|--4---2------4-----|------------------------|-4---2------4-------------|
|--2---0------2-----|------------------------|-2---0------2-------------|
|-------------------|------------------------|--------------------------|
|
|guitar 2
|____         _________________________________________   _______________
|-------------------|------------------------|--------------------------|
|-------------------|------------------------|--------------------------|
|-------------------|------------------------|--------------------------|
|------------4------|------------------------|------------4-------------|
|------------2------|------------------------|------------2-------------|
|-------------------|------------------------|--------------------------|

come again please?_
Guitar solo
E5        B5        A5              E5
___________   ~~     ~~~~~~~~~~~~~~~~~~       ~~~~~~~    ~~~~~~
|-------------------|------------------------|--------------------------|
|-------------------|-9--9-------------------|-10---------9-------------|
|-------------------|-9--9-------------------|-9----------9-----9b(11)--|
|-------------x----|-9--9------9------------|-11---------9-------------|
|-------------x----|------------------------|--------------------------|
|-------------------|------------------------|--------------------------|
|
|______________  ~~  Rhythm figure 8                 end Rhythm figure 8
|-------------------|------------------------|--------------------------|
|-------------------|------------------------|--------------------------|
|-------------------|------------------------|--------------------------|
|-------------------|-----------4----------2-|-2------------------------|
|---------------x/--|-2---------2----------0-|-0----------2-------------|
|---------------x/--|-0----------------0-2---|------------0-------------|

with Rhythm figure 8 (3 times)
B5         A5                        E5
____~~~~                           ~~~~~            ____
|-7-------------------------------|-------------------------------------|
|---10-7---7----------------------|-------------------------------------|
|--------9---7--------------------|-------------------------------------|
|--------------9--------------7--|-7--------------9-----------9b(11)---|
|-------------------------/9------|-------------------------------------|
|---------------------------------|-------------------------------------|

B5               A5                        E5
__                                           ____        ~~~~
|---------------------------------------|------------------------------17b-|
|---------------------------------------|----------------------------------|
|------7-9---11p9p7--11p9p7----11p9p7---|-7b(9)---r7-----------------------|
|----9----------------------9---------9-|----------------9-----------------|
|---------------------------------------|----------------------------------|
|---------------------------------------|-----------------------0--0-------|

B5                   A5

|-(19)-17-14---------------------17-14------------|
|-----------17b(19)-17-15-17b(19)-----17-18-17-15-|
|-------------------------------------------------|
|-------------------------------------------------|
|-------------------------------------------------|
|-------------------------------------------------|

E5
_____~~~~~
|------------------------------------------||
|----15b(17)-15b(17)-15b(17)--------------||
|-16--------------------------------------||
|------------------------------------------||
|------------------------------------------||
|------------------------------------------||

Ah.____________________________                  Ah.___
B5 A5                                         B5     A5
||------------------|-------------------------||----------------------|
||------------------|-------------------------||----------------7-----|
||o-------------7---|-7----9-7-9b(11)--9p7---o||o---------------7-----|
||o-4---2-----9---9-|----------------------9-o||o-4------2----9-----9-|
||--2---0-----------|-------------------------||--2------0------------|
||------------------|-------------------------||----------------------|

__________________________________ Ow!        Ooh,       thuder-
(B5)
~~~~~~~~~~~~~~~~~~~~~~~  ~~~
|--------------------------------||-----------|----------------|
|-7----9---7-9b(10)-----9p7------||-----------|----------------|
|-7----9---7-9b(11)-----9p7----o-||-----------|----------------|
|----------------------------9-o-||-----------|------------x--|
|--------------------------------||-----------|------------x-|
|--------------------------------||-----------|---------------|

with Rhythm figure 7 (4 times)
struck,       Thunder-struck._    Yeah, yeah, yeah, thunder-
|          |          |           |                          |

struck,       Thunder-struck._    Yeah, yeah, yeah, said
|          |          |           |                      |

Yeah, itґs al-right,_           Weґre      doinґfine,_
fine,fine,_thunder
B5              E5__________  B5                E5___________________
||--------------------|---------|---------------------|------------------||
||--------------------|---------|---------------------|------------------||
||o-------------------|---------|---------------------|-----------------o||
||o-4-----------------|---------|-4-------------------|-----------------o||
||--2---------------2-|---------|-2-----------------2-|------------------||
||--------------2-4-0-|---------|---------------2-4-0-|------------------||

with Rythm figure 7 (8 times)
as lib solo (16 bars)
struck,  Yeah, yeah, yeah, thunder-struck._    Thunderstruck,_thunder-
|        |                         |           |                       |

struck.  Whoa,__ baby baby thunder-struck._    Youґve been    thunder-
|                |                 |           |                       |

struck.                    Thunder-struck._              Thunderstruck.
(Ah.___________________)           (Ah._____________________)
|                |                 |            |                      |

Thunder-struck.      Youґve been   thunder-
(Ah.___________________)           (Ah._______________________)
|                |                 |            |                      |

struck.________________
ritard- - - - - - - - - - - - - - - - - - - - - - - - - - -|
B5_________________________________________________________  B5
|                |                 |            |           |         ||

Вверх