Apocalyptica


Path


Вверх


Path

Tuning: Drop-D

E|----------------|-----------------|-----------------|-----------------|-3-|
B|----------------|-----------------|-----------------|-1---------------|-3-|
G|0---------------|-2---------------|-3---------------|-----------------|---|
D|----------------|-----------------|-----------------|-------------0---|---|
A|----------------|-----------------|-----------1-----|-3-----3-3-------|---|
E|5-----5-5---0---|-5-----5-5---0---|-1-----1-1-------|-----------------|-5-|
Intro:

E|------------|-5---------------|-6---------------|-8------------------|-8--|
B|------------|-3---------------|-4---------------|--------------------|----|
G|------------|-----------------|-------------3---|-10-------------0---|-9--|
D|------------|-----------------|-----------------|--------------------|----|
A|------------|-----------------|-6-----6-6-------|--------------------|----|
E|--5-5---0---|-5-----5-5---0---|-----------------|-10-----10-10-------|-10-|

E|------------|-10----------------|-----------------|-----------------|-----|
B|------------|-10----------------|-----------------|-----------------|-----|
G|----------0-|-------------------|-----------------|-----------------|-----|
D|------------|-0-----0-0-----0---|-5-5-5-5-5-5-5-5-|-5-5-5-5-5-5-5-5-|-1-1-|
A|------------|-------------0-----|-5-5-5-5-5-5-5-5-|-5-5-5-5-5-5-5-5-|-1-1-|
E|--10-10-----|-------------------|-5-5-5-5-5-5-5-5-|-5-5-5-5-5-5-5-5-|-1-1-|
Intro to verse:2nd guitar

E|------------|-----------------|
B|------------|-----------------|
G|------------|-5-5-5-5-7-7-7-7-|
D|1-1-1-1-1-1-|-5-5-5-5-7-7-7-7-|
A|1-1-1-1-1-1-|-3-3-3-3-5-5-5-5-|
E|1-1-1-1-1-1-|-----------------|
(2x)

E|----------------|---1------4-3-1---|-------------------|--1--------------|---|
B|----3-1-3---1-3-|-4--4----1------4-|-3-----3-1-3---1-3-|-4--4------------|---|
G|--0-------------|------------------|-------------------|-----------------|-0-|
D|----------------|------------------|-------------------|-----------------|---|
A|----------------|------------------|-------------------|-----------------|---|
E|----------------|------------------|-------------------|-----------------|---|
Verse 1:1st guitar

E|----------------|------------------|-------------------|-----------------|---|
B|----------------|------------------|-------------------|-----------------|---|
G|----------------|---------5-5-5-5--|-------------------|---------5-5-5-5-|---|
D|5-5-5-5-5-5-5-5-|-1-1-1-1-5-5-5-5--|-5-5-5-5-5-5-5-5-5-|-1-1-1-1-5-5-5-5-|-5-|
A|5-5-5-5-5-5-5-5-|-1-1-1-1-3-3-3-3--|-5-5-5-5-5-5-5-5-5-|-1-1-1-1-3-3-3-3-|-5-|
E|5-5-5-5-5-5-5-5-|-1-1-1-1----------|-5-5-5-5-5-5-5-5-5-|-1-1-1-1---------|-5-|
Verse 1:2nd guitar

E|--4-3-1-----1-|------------4-3-1---|------4-3-1----1-3-4-|-3-----------------|
B|----------4---|-3-4-3-----1------4-|-3---1-------4-------|-------------3-4p3-|
G|--------------|--------------------|---------------------|-------1p0-1-------|
D|--------------|--------------------|---------------------|-------------------|
A|--------------|--------------------|---------------------|-------------------|
E|--------------|--------------------|---------------------|-------------------|
1st guitar:

E|--------------|--------------------|---------------------|-------------------|
B|--------------|--------------------|---------------------|-------------------|
G|--------------|--------------------|---------------------|-------------------|
D|5-5-5-5-5-5-5-|-3-3-3-3-6-6-6-6-6--|-5-5-5-5-5-5-5-5-5-5-|-3-3-3-3-6-6-6-6-6-|
A|5-5-5-5-5-5-5-|-3-3-3-3-6-6-6-6-6--|-5-5-5-5-5-5-5-5-5-5-|-3-3-3-3-6-6-6-6-6-|
E|5-5-5-5-5-5-5-|-3-3-3-3-6-6-6-6-6--|-5-5-5-5-5-5-5-5-5-5-|-3-3-3-3-6-6-6-6-6-|
2nd guitar

E|3h4-|-5-----6-5-----6-|-5---------------|-5-----6-5--6--8-|-6-|
B|----|----8-------8----|-----------------|----8------------|---|
G|----|-----------------|-----------------|-----------------|---|
D|----|-----------------|-----------------|-----------------|---|
A|----|-----------------|-----------------|-----------------|---|
E|----|-----------------|-----------------|-----------------|---|
Bridge:1st guitar

E|----|-----------------|-----------------|-----------------|-----------------|
B|----|-----------------|-----------------|-----------------|-----------------|
G|----|-----------------|---------5-5-5-5-|-----------------|---------5-5-5-5-|
D|6-6-|-0-0-0-0-0-0-0-0-|-1-1-1-1-5-5-5-5-|-0-0-0-0-0-0-0-0-|-1-1-1-1-5-5-5-5-|
A|6-6-|-0-0-0-0-0-0-0-0-|-1-1-1-1-3-3-3-3-|-0-0-0-0-0-0-0-0-|-1-1-1-1-3-3-3-3-|
E|6-6-|-0-0-0-0-0-0-0-0-|-1-1-1-1---------|-0-0-0-0-0-0-0-0-|-1-1-1-1---------|
Bridge:1st guitar

E||-5-----6-5-----6-|-----------------|-5-----6-5--6--8-|-6-|
B||----8-------8----|-8---------------|----8------------|---|
G||-----------------|-----------------|-----------------|---|
D||-----------------|-----------------|-----------------|---|
A||-----------------|-----------------|-----------------|---|
E||-----------------|-----------------|-----------------|---|
1st guitar

E||-----------------|-----------------|-----------------|-------------|
B||-----------------|-----------------|-----------------|-------------|
G||-----------------|-----------------|-----------------|-------------|
D||-0-0-0-0-0-0-0-0-|-5-5-5-5-1-1-1-1-|-0-0-0-0-0-0-0-0-|-1-1-1-1-4-4-|
A||-0-0-0-0-0-0-0-0-|-5-5-5-5-1-1-1-1-|-0-0-0-0-0-0-0-0-|-1-1-1-1-4-4-|
E||-0-0-0-0-0-0-0-0-|-5-5-5-5-1-1-1-1-|-0-0-0-0-0-0-0-0-|-1-1-1-1-4-4-|
2nd guitar

E|3--1-------------|-----------------|----1-------------|---------1-------|-3-|
B|-----4-3--1--3-4-|----3--4----3--4-|------4-3--1--3-4-|----3--4----4--3-|---|
G|-----------------|-3-------1-------|-0----------------|-3---------------|---|
D|-----------------|-----------------|------------------|-----------------|---|
A|-----------------|-----------------|------------------|-----------------|---|
E|-----------------|-----------------|------------------|-----------------|---|
Chorus:1st guitar

E|-----------------|-----------------|------------------|-----------------|---|
B|-----------------|-----------------|------------------|-----------------|---|
G|----------5-5-5-5|-----------------|-----------5-5-5-5|-----------------|---|
D|5-5-5-5-5-5-5-5-5|-1-1-1-1-6-6-6-6-|-5-5-5-5-5-5-5-5-5|-1-1-1-1-6-6-6-6-|-5-|
A|5-5-5-5-5-3-3-3-3|-1-1-1-1-6-6-6-6-|-5-5-5-5-5-3-3-3-3|-1-1-1-1-6-6-6-6-|-5-|
E|5-5-5-5-5--------|-1-1-1-1-6-6-6-6-|-5-5-5-5-5--------|-1-1-1-1-6-6-6-6-|-5-|
Chorus:2nd guitar

E|-1-------------|-----------------|----1-------------|---------------|
B|---4-3--1--3-4-|----3--4----3--4-|------4-3--1--3-4-|----3--4---3-4-|
G|---------------|-3-------1-------|-0----------------|-3-------1-----|
D|---------------|-----------------|------------------|---------------|
A|---------------|-----------------|------------------|---------------|
E|---------------|-----------------|------------------|---------------|

E|---------------|-----------------|------------------|-----------------|
B|---------------|-----------------|------------------|-----------------|
G|--------5-5-5-5|-----------------|-----------5-5-5-5|-----------------|
D|5-5-5-5-5-5-5-5|-1-1-1-1-6-6-6-6-|-5-5-5-5-5-5-5-5-5|-1-1-1-1-6-6-6-6-|
A|5-5-5-5-3-3-3-3|-1-1-1-1-6-6-6-6-|-5-5-5-5-5-3-3-3-3|-1-1-1-1-6-6-6-6-|
E|5-5-5-5--------|-1-1-1-1-6-6-6-6-|-5-5-5-5-5--------|-1-1-1-1-6-6-6-6-|

E|----------------|-----------------|-----------------|-----------------|-----|
B|----------------|-----------------|-----------------|-----------------|-----|
G|----------------|-----------------|-----------------|---------5-5-5-5-|-----|
D|5-5-5-5-5-5-5-5-|-5-5-5-5-5-5-5-5-|-5-5-5-5-5-5-5-5-|-1-1-1-1-5-5-5-5-|-5-5-|
A|5-5-5-5-5-5-5-5-|-5-5-5-5-5-5-5-5-|-5-5-5-5-5-5-5-5-|-1-1-1-1-3-3-3-3-|-5-5-|
E|5-5-5-5-5-5-5-5-|-5-5-5-5-5-5-5-5-|-5-5-5-5-5-5-5-5-|-1-1-1-1---------|-5-5-|
Intro to verse 2:2nd guitar

E|------------|-----------------|-----------------|-----------------|---------|
B|------------|-----------------|-----------------|-----------------|---------|
G|------------|---------5-5-5-5-|-----------------|---------5-5-5-5-|---------|
D|5-5-5-5-5-5-|-1-1-1-1-5-5-5-5-|-0-0-0-0-0-0-0-0-|-1-1-1-1-5-5-5-5-|-0-0-0-0-|
A|5-5-5-5-5-5-|-1-1-1-1-3-3-3-3-|-0-0-0-0-0-0-0-0-|-1-1-1-1-3-3-3-3-|-0-0-0-0-|
E|5-5-5-5-5-5-|-1-1-1-1---------|-0-0-0-0-0-0-0-0-|-1-1-1-1---------|-0-0-0-0-|

E|--------|-----------------|
B|--------|-----------------|
G|--------|-----------------|
D|0-0-0-0-|-1-1-1-1-4-4-4-4-|
A|0-0-0-0-|-1-1-1-1-4-4-4-4-|
E|0-0-0-0-|-1-1-1-1-4-4-4-4-|

E|----------------|---1------4-3-1---|-------------------|--1--------------|---|
B|----3-1-3---1-3-|-4--4----1------4-|-3-----3-1-3---1-3-|-4--4------------|---|
G|--0-------------|------------------|-------------------|-----------------|-0-|
D|----------------|------------------|-------------------|-----------------|---|
A|----------------|------------------|-------------------|-----------------|---|
E|----------------|------------------|-------------------|-----------------|---|
Verse 2:1st guitar

E|----------------|------------------|-------------------|-----------------|---|
B|----------------|------------------|-------------------|-----------------|---|
G|----------------|---------5-5-5-5--|-------------------|---------5-5-5-5-|---|
D|5-5-5-5-5-5-5-5-|-1-1-1-1-5-5-5-5--|-5-5-5-5-5-5-5-5-5-|-1-1-1-1-5-5-5-5-|-5-|
A|5-5-5-5-5-5-5-5-|-1-1-1-1-3-3-3-3--|-5-5-5-5-5-5-5-5-5-|-1-1-1-1-3-3-3-3-|-5-|
E|5-5-5-5-5-5-5-5-|-1-1-1-1----------|-5-5-5-5-5-5-5-5-5-|-1-1-1-1---------|-5-|
Verse 2:2nd guitar

E|--4-3-1-----1-|--------------------|------4-3-1----1-3-4-|-3-----------------|
B|----------4---|-3-4-3--------------|-----1-------4-------|-------------3-4p3-|
G|--------------|--------------------|---------------------|-------1p0-1-------|
D|--------------|---------------|---------------------|------------------------|
A|--------------|---------------|---------------------|------------------------|
E|--------------|---------------|---------------------|------------------------|
1st guitar               =Scratch the strings with your nails

E|--------------|--------------------|---------------------|-------------------|
B|--------------|--------------------|---------------------|-------------------|
G|--------------|--------------------|---------------------|-------------------|
D|5-5-5-5-5-5-5-|-3-3-3-3-6-6-6-6-6--|-5-5-5-5-5-5-5-5-5-5-|-3-3-3-3-3-3-3-6-6-|
A|5-5-5-5-5-5-5-|-3-3-3-3-6-6-6-6-6--|-5-5-5-5-5-5-5-5-5-5-|-3-3-3-3-3-3-3-6-6-|
E|5-5-5-5-5-5-5-|-3-3-3-3-6-6-6-6-6--|-5-5-5-5-5-5-5-5-5-5-|-3-3-3-3-3-3-3-6-6-|
2nd guitar

E|3h4-|--5h6----5h6-----|-----------------|--5h6---5--6-8-6-|
B|----|------8------8---|-----------------|------8----------|
G|----|-----------------|-----------------|-----------------|
D|----|-----------------|-----------------|-----------------|
A|----|-----------------|-----------------|-----------------|
E|----|-----------------|-----------------|-----------------|
Bridge:1st guitar

E|----|-----------------|-----------------|-----------------|-------------|
B|----|-----------------|-----------------|-----------------|-------------|
G|----|-----------------|---------5-5-5-5-|-----------------|-------------|
D|1-1-|-0-0-0-0-0-0-0-0-|-1-1-1-1-5-5-5-5-|-0-0-0-0-0-0-0-0-|-1-1-1-1-4-4-|
A|1-1-|-0-0-0-0-0-0-0-0-|-1-1-1-1-3-3-3-3-|-0-0-0-0-0-0-0-0-|-1-1-1-1-4-4-|
E|1-1-|-0-0-0-0-0-0-0-0-|-1-1-1-1---------|-0-0-0-0-0-0-0-0-|-1-1-1-1-4-4-|
Bridge:2nd guitar

E|3--1-------------|-----------------|----1-------------|---------1-------|-3-|
B|-----4-3--1--3-4-|----3--4----3--4-|------4-3--1--3-4-|----3--4----3--4-|---|
G|-----------------|-3-------1-------|-0----------------|-3---------------|---|
D|-----------------|-----------------|------------------|-----------------|---|
A|-----------------|-----------------|------------------|-----------------|---|
E|-----------------|-----------------|------------------|-----------------|---|
Chorus:1st guitar

E|-----------------|-----------------|------------------|-----------------|---|
B|-----------------|-----------------|------------------|-----------------|---|
G|----------5-5-5-5|-----------------|---------5-5-5-5--|-----------------|---|
D|5-5-5-5-5-5-5-5-5|-1-1-1-1-6-6-6-6-|-5-5-5-5-5-5-5-5--|-1-1-1-1-6-6-6-6-|-5-|
A|5-5-5-5-5-3-3-3-3|-1-1-1-1-6-6-6-6-|-5-5-5-5-3-3-3-3--|-1-1-1-1-6-6-6-6-|-5-|
E|5-5-5-5-5--------|-1-1-1-1-6-6-6-6-|-5-5-5-5----------|-1-1-1-1-6-6-6-6-|-5-|
Chorus:2nd guitar

E|-1-------------|----------------|----1-------------|-----------------|--4-3-|
B|---4-3--1--3-4-|----3-4----3--4-|------4-3--1--3-4-|----3--4---3-4---|------|
G|---------------|-3------1-------|-0----------------|-3-------1-------|-0----|
D|---------------|----------------|------------------|-----------------|------|
A|---------------|----------------|------------------|-----------------|------|
E|---------------|----------------|------------------|-----------------|------|
1st guitar

E|---------------|----------------|------------------|-----------------|-------|
B|---------------|----------------|------------------|-----------------|-------|
G|--------5-5-5-5|----------------|-----------5-5-5-5|-----------------|-------|
D|5-5-5-5-5-5-5-5|-1-1-1-1-6-6-6-6|-5-5-5-5-5-5-5-5-5|-1-1-1-1-6-6-6-6-|-5-5-5-|
A|5-5-5-5-3-3-3-3|-1-1-1-1-6-6-6-6|-5-5-5-5-5-3-3-3-3|-1-1-1-1-6-6-6-6-|-5-5-5-|
E|5-5-5-5--------|-1-1-1-1-6-6-6-6|-5-5-5-5-5--------|-1-1-1-1-6-6-6-6-|-5-5-5-|
2nd guitar

E|1---1-------------------------|--4-3-1---1-------------------------|--4-3-1-|
B|--4---3-4-1---3-4-1-3---1-----|--------4---3-4-1---3-4-1-3---1-----|--------|
G|----------------------3---1-3-|-0--------------------------3---1-3-|-0------|
D|------------------------------|------------------------------------|--------|
A|------------------------------|------------------------------------|--------|
E|------------------------------|------------------------------------|--------|
1st guitar

E|------------------------------|------------------------------------|---------|
B|------------------------------|------------------------------------|---------|
G|----------5-5-5-5-5-5-3-3-----|----------------5-5-5-5-5-5-3-3-----|---------|
D|5-5-5-5-5-5-5-5-5-5-5-3-3-6-6-|-5-5-5-5-5-5-5--5-5-5-5-5-5-3-3-6-6-|-5-5-5-5-|
A|5-5-5-5-5-3-3-3-3-3-3-1-1-6-6-|-5-5-5-5-5-5-5--3-3-3-3-3-3-1-1-6-6-|-5-5-5-5-|
E|5-5-5-5-5-----------------6-6-|-5-5-5-5-5-5-5------------------6-6-|-5-5-5-5-|
2nd guitar

E|--1-------------------------|--4-3-1---1-----------------1-4-6-|
B|4---3-4-1---3-4-1-3---1-----|--------4---3-4-1---3-4-3-4-------|
G|--------------------3---1-3-|-0--------------------------------|
D|----------------------------|----------------------------------|
A|----------------------------|----------------------------------|
E|----------------------------|----------------------------------|
1st guitar

E|----------------------------|---------------------------------|
B|----------------------------|---------------------------------|
G|--------5-5-5-5-5-5-3-3-----|-----------------5-5-5-5-3-3-----|
D|5-5-5-5-5-5-5-5-5-5-3-3-6-6-|-5-5-5-5-5-5-5-5-5-5-5-5-3-3-6-6-|
A|5-5-5-5-3-3-3-3-3-3-1-1-6-6-|-5-5-5-5-5-5-5-5-3-3-3-3-1-1-6-6-|
E|5-5-5-5-----------------6-6-|-5-5-5-5-5-5-5-5-------------6-6-|
2nd guitar

Вверх