Armstrong Louis


Summertime



Sweet Georgia Brown



We Have All The Time



What A Wonderful
World



What A Wonderful
World (2 вариант)



What A Wonderful
World (3 вариант)



When The Saints Go
Marching In



When The Saints Go
Marching In (2 вариант)


Вверх


Summertime

Em        Am7 Em       Am7       Em    Am7 Em
Summertime,    and the livin' is easy
Am7                       B7  C7 B7
Fish are jumpin' and the cotton is high
Em  Am7 Em       Am7          Em      Am7 Em
Your daddy's rich,   and your momma's good lookin'
G                   A7 B7        Em  Am7 Em
So hush little baby,   don't you cry

Em                   Am7 Em           Am7     Em      Am7 Em
One of these mornings,   you're gonna rise up singing
Am7                                      B7  C7 B7
Then you'll spread your wings and you'll take to the sky
Em     Am7 Em        Am7         Em       Am7 Em
But till that morning,   there's a nothin' can harm you
G              A7 B7       Em  Am7 Em
With daddy and mammy   standing by



All those moments will be lost in time, like tears in the rain.


----0-------0---0-|
|-------------4---5---77--5-------5

Вверх


Sweet Georgia Brown

E7 A7 D7 B7 G Em
e--0------0-------3------2-------3-------0--------------
B--0------2-------2------0-------0-------0--------------
G--1------0-------3------2-------0-------0--------------
D--0------2-------0------1-------0-------2--------------
A--2------0-------0------2-------2-------2--------------
E--0------0-------0------0-------3-------0--------------


E7
No gal made has got a shade on Sweet Georgia Brown,
A7
Two left feet, oh, so neat,

Has Sweet Georgia Brown!
D7
They all sigh, and want to die,

For Sweet Georgia Brown!
D7 G
I'll tell you just why,
D7 G B7
You know I don't lie, not much:

E7
It's been said

She knocks 'em dead,

When she lands in town!
A7
Since she came,

Why it's a shame,

How she cools them down!
Em B7
Fellows she can't get
Em B7
Are fellows she ain't met!
G B7 E7
Georgia claimed her, Georgia named her,
A7 D7 G
Sweet Georgia Brown!


E7
No gal made has got a shade on Sweet Georgia Brown,
A7
Two left feet, oh, so neat,

Has Sweet Georgia Brown!
D7
They all sigh, and want to die,

For Sweet Georgia Brown!
G
I'll tell you just why,
D7 G B7
You know I don't lie; not much:

E7
All those gifts some courters give,

To Sweet Georgia Brown,
A7
They buy clothes at fashion shows,

With one dollar down,
Em B7
Oh, boy! Tip your hat!
Em B7
Oh, joy! She's the cat!
G
Who's that, Mister?
B7 E7
'Tain't a sister!
A7 D7 G
Sweet Georgia Brown

Вверх


We Have All The Time

A Gbm A Gbm

Gbm A Gbm Dbm7 Em
We have all the time in the world
Em Bm E7
Time enough for life to unfould
E7 A E7
all the precious things love has in store
E7 A Gbm Dbm7 Em
We have all the love in the world
Em Bm E7 A
If that's all we love you will find we need nothing more

C Bb F F7+
Every step of the way will find us
Bb Ab Db E7
With the cares of the world far behind us

A Gbm Dbm7
We have all the time in the world
Em Gbm Bm7 A
Just for love nothing more nothing less only love

A / Gbm // x3

C Bb F F7+
Every step of the way will find us
Bb Ab Db E7
With the cares of the world far behind us

A Gbm Dbm7
We have all the time in the world
Em Gbm Bm7 A
Just for love nothing more nothing less only love

A / Gbm // x3

Вверх


What A Wonderful
World

F         Am    Bb         Am
I see trees of green, red roses too
Gm7        F     A7         Dm
I see them bloom, for me and you,
Db              Gm7/C    C7        F  / F+ / Bbmaj7 / C7 /
And I think to myself, What a  wonderful world.

I see skies of blue and clouds of white,
The bright blessed day, the dark sacred night,
And I think to myself, what a wonderful world (F / Bb / / / F /)

C7                        F
The colors of the rainbow, so pretty in the sky
C7                   F
Are also on the faces of people goin' by
Dm              C              Dm         C
I see friends shaking hands, saying, "How do you do?"
Dm             F#dim7   Gm7  F#dim7  Gm7     C7
They're really saying,  "I   love    you."   I hear

(back to verse chords)

Babies cry, I watch them grow
They'll learn much more than I'll ever know,
And I think to myself what a wonderful world(F / Am7b5 / )

D7       Gm7             Gm7/C   C7b9      F    Bb6  F
Yes I think to myself, what a wonderful world.

Вверх


What A Wonderful
World (2 вариант)

D         F#m    G         F#m
I see trees of green, red roses too
Em7        D     F#7         Bm
I see them bloom, for me and you,
Bb              Em7/A   A7        D  / D+ / Gmaj7 / A7 /
And I think to myself, what a wonderful world.

D         F#m      G         F#m
I see skies of blue and clouds of white,
Em7                D        F#7         Bm
The bright blessed day, the dark sacred night,
Bb              Em7/A    A7        D / G / G / D /
And I think to myself, what a wonderful world


A7                        D
The colors of the rainbow, so pretty in the sky
A7                   D
Are also on the faces of people goin' by
Bm              F#m             Bm         F#m
I see friends shaking hands, saying, "How do you do?"
Em7            F#dim7   Em7  F#dim7  Em7
They're really saying,  "I   love    you."


A7     D      F#m    G          F#m
I hear babies cry, I watch them grow
Em7                D    F#7            Bm
They'll learn much more than I'll ever know,
Bb              Em7/A    A7        D / F#m7b5 / B7
And I think to myself what a wonderful world

Em7             Em7/A   A7b9      D    G6  D
Yes I think to myself, what a wonderful world.

D+:     xx0332
F#dim7: xx1212
F#m7b5: xx2212
A7b9:   x02320
G6:     320000

Вверх


What A Wonderful
World (3 вариант)

F5           Am5      Bb5        Am5
e-|------------------|------------------------|
B-|------------------|------------------------|
G-|--------2--3--5---|---7---7-7-7-5----------|
D-|--3--5--0--1--3---|---5---5-5-5-3----------|
A-|--1--3------------|------------------------|
E-|------------------|------------------------|
I see trees of green   Red roses too
Gm7                F5       A7        Dm5
e-|------------------|------------------------|
B-|------------------|------------------------|
G-|------------------|------------------------|
D-|--3--3-----5--2---|----------------2-------|
A-|--1--1-----3--0-5-|-3-------5---5--0---3---|
E-|----------------3-|-1-------3---3------1---|
I  see   them     bloom   For me and you

Db5               Gm7/C  C7         F5
e-|-------------------|-----------------------|
B-|-------------------|-----------------------|
G-|-------------------|-------------2---------|
D-|--3--3-----3--3-3--|---2----3-5--0--5-/-7--|
A-|--1--1-----1--1-1--|---0----1-3-----3-/-5--|
E-|-------------------|-----------------------|
And I  think to myself   What a wonderful world

F5           Am5      Bb5        Am5
e-|------------------|------------------------|
B-|------------------|------------------------|
G-|--------2--3--5---|---7---7-7-7-5----------|
D-|--3--5--0--1--3---|---5---5-5-5-3----------|
A-|--1--3------------|------------------------|
E-|------------------|------------------------|
I see skys  of blue   And clouds of white

Gm7                F5       A7        Dm5
e-|------------------|------------------------|
B-|------------------|------------------------|
G-|------------------|------------------------|
D-|--3--3-----5--2---|----------------2-------|
A-|--1--1-----3--0-5-|-3-------5---5--0---3---|
E-|----------------3-|-1-------3---3------1---|
The bright blessed day The dark sacred night

Db5               Gm7/C  C7         F5
e-|-------------------|-----------------------|
B-|-------------------|-----------------------|
G-|-------------------|-------------2---------|
D-|--3--3-----3--3-3--|---2----3-5--0--5-/-7--|
A-|--1--1-----1--1-1--|---0----1-3-----3-/-5--|
E-|-------------------|-----------------------|
And I  think to myself   What a wonderful world

C7
e-|-------------------|-----------------------|
B-|-------------------|-----------------------|
G-|-------------------|-----------------------|
D-|--5---5-5----5-----|--5---5---5------------|
A-|--3---3-3----3-----|--3---3---3------------|
E-|-------------------|-----------------------|
The colors of       the rainbow

F5
e-|-------------------|-----------------------|
B-|-------------------|-----------------------|
G-|-------------------|-----------------------|
D-|--7--7--7----------|--7---7--7-------------|
A-|--5--5--5----------|--5---5--5-------------|
E-|-------------------|-----------------------|
So pretty           in the sky
C7
e-|-------------------|-----------------------|
B-|-------------------|-----------------------|
G-|-------------------|-----------------------|
D-|--5---5-5----5-----|--5---5---5------------|
A-|--3---3-3----3-----|--3---3---3------------|
E-|-------------------|-----------------------|
Are also   on       the faces

F5
e-|-------------------|-----------------------|
B-|-------------------|-----------------------|
G-|-------------------|-----------------------|
D-|--7--7--7----------|--7---7--7-------------|
A-|--5--5--5----------|--5---5--5-------------|
E-|-------------------|-----------------------|

Of people           going  by

Dm5                 C5
e-|-------------------|-----------------------|
B-|-------------------|-----------------------|
G-|---5---7-------7---|--7---5----------------|
D-|-7-3---5-------5---|--5---3----------------|
A-|-5-----------------|-----------------------|
E-|-------------------|-----------------------|
I see friends shak - ing hands
Dm5            C5
e-|-------------------|-----------------------|
B-|-------------------|-----------------------|
G-|---5--7--------7---|--7--7---5-------------|
D-|---3--5--------5---|--5--5---3-------------|
A-|-------------------|-----------------------|
E-|-------------------|-----------------------|
saying,    "How    do you do?"

Dm5                 C5
e-|-------------------|-----------------------|
B-|-------------------|-----------------------|
G-|---5---7-------7---|--7---5----------------|
D-|-7-3---5-------5---|--5---3----------------|
A-|-5-----------------|-----------------------|
E-|-------------------|-----------------------|
They're real - ly

Dm5            C5
e-|-------------------|-----------------------|
B-|-------------------|-----------------------|
G-|---5--7--------7---|--7--7---5-------------|
D-|---3--5--------5---|--5--5---3-------------|
A-|-------------------|-----------------------|
E-|-------------------|-----------------------|
saying,    "I      love  you."

Вверх


When The Saints Go
Marching In

Em
Oh, when the saints, go marching in,
B7
Oh when the saints go marching in,
Em A
Oh Lord, I want to be in that number,
B7 Em
When the saints go marching in.

Em
Oh when the sun, refuse to shine,
B7
Oh when the sun refuse to shine,
Em A
Oh Lord, I want to be in that number,
B7 Em
When the sun refuse to shine.

Em
Oh, when the saints, go marching in,
B7
Oh when the saints go marching in,
Em A
Oh Lord, I want to be in that number,
B7 Em
When the saints go marching in.

Em
Oh when they crown, Him Lord of all,
B7
Oh when they crown Him Lord of all,
Em A
Oh Lord, I want to be in that number,
B7 Em
When they crown Him Lord of all.

Em
Oh when they gather around the throne,
B7
Oh when they gather around the throne,
Em A
Oh Lord I want to be in that number,
B7 Em
When they gather around the throne.

Em
Oh, when the saints, go marching in,
B7
Oh when the saints go marching in,
Em A
Oh Lord, I want to be in that number,
B7 Em
When the saints go marching in.

Вверх


When The Saints Go
Marching In (2 вариант)

e|-----------------------------------------------
b|---0-1-3----0-1-3-----0-1-3-0---0--------------
G|-0--------0---------0---------0---2------------
D|-----------------------------------------------
A|-----------------------------------------------
E|-----------------------------------------------

e|-----------------------------------------------
b|--0-0---------0--3--3-1--1--0--1--3--0---------
G|------2-0---0---------------------------2-2--0-
D|-----------------------------------------------
A|-----------------------------------------------
E|-----------------------------------------------

Вверх