Bjork


All Is Full Of Love



Army Of Me



Aurora



Bachelorette



Big Time Sensuality



Crying



Human Behaviour



Hunter



Hyper Ballad



I Go Humble



Its Oh So Quiet



Joga



Leaving On A Jet Plane



Possibly Maybe



So Broken



So Broken Intro



Theres More To Life
Than This



Unison



Who Is It



Youve Been Flirting
Again


Вверх


All Is Full Of Love

F C#
you'll be taken care of
F#
you'll be given love
F C#
you have to trust it
F#

maybe not from the sources
F# F F#
you have poured yours
F# F
maybe not from the directions
F# F F#
you are staring at
F

trust your head around
F C#
it's all around you
F#
all is full of love
F C#
all around you
F#

all is full of love
F# A#
you just aint receiving
A#
all is full of love
F# A#
your phone is off the hook
A#
all is full of love
F# A#
your doors are all shut
A#
all is full of love!
F# A#


all is full of love
A# F#
all is full of love
A# F#
all is full of love
A# F#
all is full of love
A# F#
all is full of love
A# F#

Вверх


Army Of Me

verses: ("you're alright...")
G|-------------|
D|-----75------| [ * = sometimes the note before this one ]
A|--030--0300--| [ is held out and the * note is not played ]
E|----------*--|

chorus: ("and if you complain...")
G|------------------|
D|------------------| [ the R stands for a quarter rest ]
A|--5-4-3-R-5-4-3-R-|
E|------------------|

note: this is how *i* play it. i'd love to hear
how others play the verses. also, a non-tab
related thing: helmet does an awesome cover
of this song on some charity compilation disc,
well worth checking out if you're into bjork
and/or helmet.

Вверх


Aurora

Bells intro
E |-13-11-------14-11-13-11-------13-11----------------5-----------|
B |-------14-12-------------14-12-------14-12------------8---------|
G |----------------------------------------------------------------|
D |----------------------------------------------------------------|
A |----------------------------------------------------------------|
E |----------------------------------------------------------------|


Verse
Dm G C/G Dm
Threading the glacier head
Dm G Am Dm
Looking hard for Moments of shine
C G Am
From twilight to twilight

Chorus
C Dm F / F G Am Am C
Ahhhhh... Ahhhhh... Utter mundane

Heading for the sublime

Verse
C Am
Aurora goddess sparkle
Am Am
Shoot me Beyond this suffer
F C
The need is great
Am
Aurora

Chorus

Verse
Dm F Dm
Aurora goddess sparkle
Dm G
A mountain shade
Dm C F
Suggests your shape
Dm F C G
I tumble down on my knees
Dm G
I fill my mouth with snow
C G
The way it melts
Dm Am G
I wish to melt it to you
C
Aurora

Spark the sun off
Spark the sun off

Вверх


Bachelorette

Tuning: C.A.D.G

(Piano Part)

G:--------------------|
D:--------------------|
A:--------------------|
C:-12*--15*--12*--14*-|

G:--------------------------------------------|
D:--------------------------------------------|
A:--------------------------------------------|
C:-12-0-12-0-12-0-12-0-14-0-14-0-14-0-14-0-12-|

G:-----|
D:-----|
A:-----|
C:-12~-|

(Violin Part)

G:-------------------------------------------|
D:-------------------------------------------|
A:-13-15-13-12-10-13-5~--13-15-13-12-10-13~--|
C:-------------------------------------------|

Вверх


Big Time Sensuality

verses
G|-------------|
D|--2----------|
A|----00-2-0---|
E|-----------3-|

G|-------------|
D|--2----------|
A|----0-2-0----|
E|----------0--|

chorus ("it takes courage...")
G|--------------------|
D|--------5-5---------|
A|----------------2-2-|
E|--5-5--3-3--5-5-----|

Вверх


Crying

main:

G--------------------------
D--7----------7------------
A----5-6--7-----5-6--7-----
E----------------------5---

in some parts only:
G--------------
D--7-----------
A----5-6--7----
E--------------

Вверх


Human Behaviour

G|-----------------|
D|-----------------|
A|-0-0-----0-3-0---|
D|-----0-3-------3-|

Вверх


Hunter

G Ab
If travel is searching
G Ab
And home what's been found
G Ab
I'm not stopping

G Ab
I'm going hunting
G Ab
I'm the hunter
G Ab
I'll bring back the goods
G Ab
But I don't know when

Ab Eb
I thought I could organise freedom
Ab Eb
How Scandinavian of me
Bb
You sussed it out, didn't you?

G Ab
You could smell it
G Ab
So you left me on my own
G Ab
To complete the mission
G Ab
Now leave it all behind

G Ab
I'm going hunting
G Ab
I'm the hunter

G Ab
I'm the hunter...

Вверх


Hyper Ballad

Verse
G||----------------|
D||----------------|
A||----------------|
E||----------------|
B||-4----3----1----|

Chorus(the rytham of this changes when the drums do)
G||-----------------------------------------|
D||-----------------------------------------|
A||------1----3----1---------1----3----5----|
E||-4-------------------4-------------------|

Thats prety much it. If I have missed anything out
sorry but someone stole my album shortly after I
bought it.

Вверх


I Go Humble

e---------------------------------------------------------------------------|
B---------------------------------------------------------------------------|
G---------------------------------------------------------------------------|
D-------------------------11------------------------------------------------|
A---7---9---10---12--------------------OR--------------------------4--------|
E-----------------------------------------------0---2---3---5---------------|

Вверх


Its Oh So Quiet

intro(some type of woodwind transcribed for guitar)-
E------------------------------------------------------|
B------------------------------------------------------|
G-----------------15---------------15------------------|
D--13----------13----12---------12-----10--------------|
A-----------13--------------13---------------11--13----|
E------------------------------------------------------|

After playing this once, Bjork says "Shhh!" at which point you'll
want to play it again. After the second time comes the verse which goes
something like this:

"quiet...shhh...shhhhh. It's oh so still,etc."
E------------------------------------------------------|
B------------------------------------------------------|
G------------------------------------------------------|
D----13-----------13---17---15----17-------------------|
A------------13----------------------------------------|
E------------------------------------------------------|
"You're all..."
E------------------------------------------------------|
B------------------------------------------------------|
G------------------------------------------------------|
D----16--15--------12---15---14---------15-------------|
A--------------13--------------------------------------|
E------------------------------------------------------|
"alone..." "...until."
E-------------------------------------|----------------|
B-------------------------------------|----------------|
G-------------------------------------|----------------|
D---------15---------12--15--14--15---|-----17---------|
A----13----------13-------------------|----------------|
E-------------------------------------|----------------|

Вверх


Joga

Intro

Gm# A B Cm#
E |----------------------------------------------------------------|
B |----------------------------------------------------------------|
G |--8--9-8-6--4--6--4--6------------------------------------------|
D |----------------------------------------------------------------|
A |----------------------------------------------------------------|
E |----------------------------------------------------------------|

Verse

Gm# A Gm# A Gm#
All these accidents, That happen, Follow the dot,
Gm# A Gm# A Gm#
Coincidence, Makes sense, Only with you,
Gm# A B
You don't have to speak, I feel.

Chorus

Cm# A Fm# B
Emotional landscapes,
Cm# A
They puzzle me,
Fm#
Then the riddle gets solved, And you push me up to this

E |----------------------------------------------------------------|
B |------------------7--9--5--4------------------------------------|
G |--9--8--6-------------------------------------------------------|
D |-----------9----------------------------------------------------|
A |----------------------------------------------------------------|
E |----------------------------------------------------------------|

Cm# A Gm# A
State of emergency, How beautiful to be,
E A Gm# A
State of emergency, Is where I want to be.

Verse

All that no-one sees, You see, What's inside of me,
Every nerve that hurts, You heal, Deep inside of me, oo-oohh,
You don't have to speak, I feel.

Chorus

Emotional landscapes,
They puzzle me - confuse,
Then the riddle gets solved,
And you push me up to this

State of emergency, How beautiful to be,
State of emergency, Is where I want to be.
State of emergency, How beautiful to be,

Вверх


Leaving On A Jet Plane

Intro: D - G - D - G - D - G - D - G


Verse 1

D G
All my bags are packed I'm ready to go.
D G
I'm standing here out side your door.
D G A7
I hate to wake you up to say goodbye.
D G
But the dawn is breaking it's early morn.
D G
The taxi's waitin he's blownin his horn.
D G A7
Already I'm so lonesome I could die.



Chorus

D G D G
So kiss me and smile for me. Tell me that you'll wait for me.
D G A7
Hold me like you'll never let me go.
D G D G D
Cause I'm leaving on a jet plane. I Don't know when I'll be back again.
G A7
Oh, babe I hate to go.


Verse 2

D G
There's so many times I've let you down
D G
So many time I've played around.
D G A7
I tell you now they don't mean a thing.
D G
Every place I go I'll think of you.
D G
Every song I sing I'll sing for you.
D G A7
When I come back I'll wear your wedding ring.


(Chorus)


Verse 3

D G
Now the time has come to leave you.
D G
One more time let me kiss you.
D G A7
Then close your eyes and I'll be on my way.
D G
Dream about the days to come.
D G
When I won't have to leave alone.
D G A7
About the times that I won't have to say


(Chorus)

Вверх


Possibly Maybe

main riff
e:-------------
B:-------------
G:-------------
D:---9-8-------
A:-------8-9---
E:-7-----------

"Possibly Maybe...)
e:-----|
B:-----|
G:-----|
D:-----|
A:-----|
E:-9---|

End Verse:
e:------------------|
B:------------------|
G:------------------|
D:------------------|
A:------------------|
E:-9---9-9---9--9-9-|

Вверх


So Broken

e|---------------------------------------------------------------------------|
B|-----4-------4-----4-----4--------3-------3------4--------3----------8-----|
G|-----5-------5-----5-----5--------5-------5------5--------5----------7-----|
D|---------------------------------------------------------------------------|
A|---3-----------3------------3-5-------------5-------5-5----------6---------|
E|-------3-3-----------3-3------------5-5------------------------------------|



e|---------------------------------------------------------------------------|
B|--------8-------8--------8-------3--------3------4-------3-----------------|
G|--------7-------7--------7-------5--------5------5-------5-----------------|
D|---------------------------------------------------------------------------|
A|------------6----------------5---------------5------5-5--------------------|
E|---6-6------------6-6---------------5-5------------------------------------|

Вверх


So Broken Intro

This isn't complete, but it's the main part of the song.

|-----0------0-----------0------0------|
|-----1------1-----------1------1------|
|--------------------------------------|
|--------------------------------------|
|--0-----0------------0-----0----------|
|----------0---0--0-----------0---0--0-|

|-----2------2-----------2------2------|
|-----4------4-----------4------4------|
|--------------------------------------|
|--------------------------------------|
|--2-----2------------2-----2----------|
|----------2---2--2-----------2---2--2-|

Вверх


Theres More To Life
Than This

most of the song is this:
G|------------------|
D|-7-7--------------|
A|-----5-5-6-6-0-0--|
E|------------------|

but near the end it does this a few times:
G|------------------|
D|-7-7--------------|
A|-----5-6-5-6-0-0--|
E|------------------|

and then goes back to the original.

Вверх


Unison

Bb C A Bb
/ / // / /

Bb C A Bb
Born stubborn me
Bb C A Bb
Will al- ways be
Bb C A Bb
Before you count a-one-two-three
Bb C A
I will grow my own private branch
Bb C A
Of this tree

Bb C A
You gardener, you
Bb C A
Discipliner, domestically
Bb C A
I can obey all of your rules
Bb C A
And still be free

Bb C
I never thought I would compromise

C Gm C
Let's unite tonight
C Gm C
We shouldn't fight
C Gm C
Em___brace you tight
C Gm C
Let's unite tonight

Вверх


Who Is It

Eb Cm
His embrace -- a fortress
Eb Cm
It fuels me and places
G G#
A skeleton of trust, right beneath us
G G#
Bone by bone, and stone by stone; if you ask yourself

Gm G#
Now carefully -- and patiently
Gm
Who is it?

Eb Cm
Who is it -- that never lets you down?
Eb Cm
Who is it -- that gave you back your crown?
G G# G
And the ornaments are, a-going around
G G#
Now they're handing it over, handing it over, handing!

Вверх


Youve Been Flirting
Again

Bb C Bb C
All that she said was true
Bb C Bb C
All that she said was true
Bb C
Give her some time
Bb C
Give her some space
Bb C Bb C
All that she said was true

Gm Am Gm Am
All that she meant was good
Gm Am Gm Am
All that she meant was good
Gm Am
Give her some time
Gm Am
Give her some space
Gm Am Gm Am
All that she meant was good

Dm Em Dm Em
How you reacted was right
Dm Em Dm Em
How you reacted was right
Gm Am
Give her some time
Gm Am
Give her some space
Dm Em Bb C D
How you reacted was right

Вверх