Blur


1992



Beetlebum



Chemical World



Coffee & Tv



Country Housen

End Of A Century

Parklife



Song 2



Song 2 (2 вариант)



Song 2 (3 вариант)



Song 2 (4 вариант)



Tender



The Universal

You’re So Great


Вверх

1992

Intro: Am

Am         D
Going into business
F#m             D
An agreement of your bombast
G#
You'd love my bed
Bm                   D     Dm
You took the other instead
Am                 D
But don't you feel low
F#m         D
I was being oblique
G#
And you'd love my bed
Bm                  D     Dm
You got the other instead

Middle (weird electric solo):
Am-D-F#m-D-G#-Bm-D-Dm

Am          D
What do you owe me?
F#m               D
The price of your piece of mind
G#
You'd love my bed
Bm                   D     Dm
You took the other instead

Repeat chords multiple times
Solo/outro:

Am          D   F#m      D            Ab      Bm       D   F
E|-----------------------------------------------------------|
B|-----------------------------------------------------------|
G|------------7~~-5------6~7~---12-h-13----------------------|
D|-------------------7~~-----------------6~~~~~~-------------|
A|---------------------------------------------------2s4-4---|
E|-5~~-8-5-------------------------------------------------

Вверх


Beetlebum

INTRO:

E:---------------------------------------------|
B:---------------------------------------------|
G:---------------------------------------------|
D:---------------------------------------------|
A:-----------7---7---7-----------7---7---7-----|
E:---12----5---5---5----12----5---5---5--------|

(Repeat X 5)

VERSE 1:

A	   C
Beetlebum, what you done?
F	     G
She's a gun, now what you done?
Bb        A
Beetlebum

A	            C
Get nothing done, you beetlebum
F	       G
Just get numb, now what you done
Bb	  A
Beetlebum


RIFF OVER VERSES:

A
E:------------------------------------------|
B:------------------------------------------|
G:------------------------------------------|
D:------------------------------------------|
A:----------7---7---7------------7---7---7--|
E:--12----5---5---5-----12----5---5---5-----|

C
E:------------------------------------------|
B:------------------------------------------|
G:------------------------------------------|
D:------------------------------------------|
A:---------10--10--10-----------10-10--10---|
E:--15----8----8----8-----15----8---8---8---|

F
E:------------------------------------------|
B:------------------------------------------|
G:------------------------------------------|
D:------------------------------------------|
A:--------3---3---3-----------3---3---3-----|
E:--8----1---1---1-----8----1---1---1-------|

G
E:------------------------------------------|
B:------------------------------------------|
G:------------------------------------------|
D:------------------------------------------|
A:--------- 5---5---5-----------5---5---5---|
E:--10----3---3---3----10----3---3---3------|


CHORUS:

C
And when she lets me slip away
Bm		      Am	  F
She turns me on and all my violence gone
Am	           F
Nothing is wrong, I just slip away
Fm	   C
And I am gone
Bm		  Am
Nothing is wrong
F
She turns me on
Am     F	    Fm	  C
I just slip away and I am gone

VERSE 2:

A             C
Beetlebum, because your young
F	     G
She's a gun, now what you done?
Bb          A
Beetlebum

A	                     C
She'll suck your thumb, she'll make you come
F	                 G
Cause she's your gun, now what you done?
Bb	       A
Beetlebum

CHORUS:

C
And when she lets me slip away
Bm		      Am          F
She turns me on and all my violence gone
Am	            F
Nothing is wrong, I just slip away
Fm	   C
And I am gone
Bm	         Am
There's nothing wrong
F
She turns me on
Am     F	   Fm
I just slip away and I am...


A
He's on, he's on, he's on it
C
He's on, he's on, he's on it
F
He's on, he's on, he's on it
G		       Bb     A
He's on, he's on, he's on it...


OUTRO RIFF:

E: ----------------------------------------|
B: ---10-----------------------------------|
G: --------9--/8/-9------------------------|
D: ----------------------10---9---7--------|
A:---------------------------------------5-|
E: ----------------------------------------|

(Repeat riff till the end
over chords from the verses)

I hope you in joy playing the song.

Вверх


Chemical World

Intro:

E|----------------------2-2-2-2-----------------|
B|-2-2-2-2-2--2-2-2-2---3-3-3-3-3--3-h-p-h-p----|
G|-2-2-2-2-2--2-2-2-2---2-2-2-2-2--2--4-2-4-2-5-| 4x
D|-2-2-2-2-2--2-2-2-2---0-0-0-0-0--0----------3-|
A|-0-0-0-0--------------------------------------|
E|---------4--4-4-4-4---------------------------|

Intro/verse (US version starts here):

E|-----------------------h--p----------------------------------|
B|---------14----------14-15-14--------------------------------|
G|------14----14----------------14--------------h--p-----p-----|
D|------------------14---------------h------12-9-10-9-7-9-7----|
A|-11/14---------11----------------11-12--------------------10-|
E|---------------------------------------10--------------------|

E|---------------------h--p----------------------------------|
B|-------14----------14-15-14--------------------------------|
G|----14----14----------------14---------------h--p-----p----|5x
D|----------------14----------------h------12-9-10-9-7-9-7---|
A|-12----------11----------------11-12--------------------10-|
E|--------------------------------------10-------------------|

A                    (Bass Ab)
The pay-me girl has had enough of the bleeps
D             C      G
So she takes a bus into the country
A                        (Bass Ab)
Although she got herself rosy cheeks
D                   C        G
She didnґt leave enough money to pay the rent
A                        (Bass Ab)
The landlord says that sheґs out in a week
D                    C            G
What a shame she was just getting comfy

A                             (Bass Ab)
Now sheґs eating chocolate to induce sleep
D                   C           G
In a chemical world itґs very, very, very cheap

Chorus:

E|-----0-----------0--p---------0------------------------|
B|---2---2---2---2---2-0----------------------h-p-h-p----|
G|-2-------1-------------2--1-2---1-4-----2--2-4-2-4-2---|
D|-------------2-----------------------4---------------4-|
A|-------------------------------------------------------|
E|-------------------------------------------------------|

A                      Amaj7
And I donґt know about you

F#m         C#m         Bm        D    F
But theyґre putting the holes in, yes, yes
A                     Amaj7
Itґs been a hell of a do
F#m          C#m         Bm        D    F
Theyґve been putting the holes in, yes, yes

A                    (Bass Ab)
Peeping Thomas has a very nice view
D                        C   G
Across the street at the exhibitionist
A                  (Bass Ab)
These townies they never speak to you
D                 C              G
Just stick together so they never get lonely
A                     (Bass Ab)
Feeling lead, feeling quite light-headed
D                   C         G      A
Had to sit down and have some sugary tea
(Bass Ab)            D
In a chemical world, in a chemical world
C           G
Itґs very, very, very cheap

Вверх


Coffee & Tv

E --------------------------------------------------------
B -----------------------------------------7--7-7-5---5-5-
G --8-8--8-9-8--8-9-8--8-9-8-8--5-5--5-5-5----------------
D --9-9--9-9-9--9-9-9--9-9-9-9--7-7--7-7-7----------------
A --------------------------------------------------------
E --------------------------------------------------------

E --------------------------------------------------------------
B --------------------------------------------------------------
G --4-4--4-4-4-4-2-2--2-2-2-2--7-7--7-7-7-7-10-10--10-10-10-10--
D --5-5--5-5-5-5-3-3--3-3-3-3--8-8--8-8-8-8-11-11--11-11-11-11--
A --------------------------------------------------------------
E --------------------------------------------------------------


B
Do you feel like a chain-store

Am          E
Practically floored

G/D         F
One of many zeros

Bb            C#
Kicked around bored

B
Your ears are full but youґre empty

Am   		 E
Holding out your heart

G/D       	    F
To people who never really

Bb           A
Care how you are



C#m
So give me coffee and TV

B    A
History

C#m       	      E
Iґve seen so much Iґm going blind

A  		  B
And Iґm brain-dead virtually

C#m
Sociability

B 	           A
Is hard enough for me

C#m 	               E
Take me away from this big bad world

A  	     D
And be free to marry me

A
So we can start over again



B
Do you go to the country

Am         E
It isnґt very far

G/D  		            F
Thereґs people there whoґll hurt you

Bb	           C#
Because of who you are

B
Your ears are full of their language

Am	            E
Thereґs wisdom there youґre sure

G/D	             F
ґTil the words start slurring

Bb  		       A
And you canґt find the door

Solo:

B              A  E  G    F   A#     C#
E -----------------------------------------------------------
B ----------------------17~~-15~~----------------------------
G -16~~------------------------------------------------------
D ------16h18-19--14~~-----------15b17--15-15^---------------
A -----------------------------------------------------------
E -----------------------------------------------------------

B    A       E         G   F   A#   A
E ---------------------------------------------------------
B --------------------------------------------------17~~~--
G ------9-11-11-9b11-11-9----------------------------------
D -5b7---------------------9~~9~~-12~--14~~---12/14--------
A ---------------------------------------------------------
E ---------------------------------------------------------

Ending:

B
E -----------------------------
B -----------------------------
G -----------------------------
D -----------------------------
A -6-7-6-7-9-7-6--6-7-6-7-9-7--
E -----------------------------

D                 A
Aah, we can start over again

D                 A
Aah, we can start over again

D                 A
Aah, we can start over again

D                 A
Aah, we can start over again


Прислал(а): Stas_1070 / [email protected]

Вверх

Country Housen

                            (C)    CITY DWELLER
(G)   SUCCESSFUL FELLA
(Dm)  THOUGHT TO HIMSELF
OOPS I'VE GOT A LOT OF MONEY
(F)  I'M CAUGHT IN A (Em) RAT RACE(E7) TERMINALLY
(C)   I'M A PROFESSIONAL CYNIC
(G)   BUT MY HEART'S NOT IN IT
(Dm) I'M PAYING THE PRICE OF LIVING LIFE AT THE LEGAL LIMIT
(F) CAUGHT UP (Em)IN THE CENTURIES(E) ANXIETY

(G)  IT PREYS ON HIM
(G7) HE'S GETTING THIN

(C)  NOW HE LIVES IN A HOUSE A VERY BIG HOUSE IN THE(G) COUNTRY
(F) WATCHING AFTERNOON REPEATS AND THE FOOD HE EATS IN THE(C) COUNTRY
(C)HE TAKES ALL MANNER OF PILLS AND PILES UP ANALYST BILLS IN THE(G) COUNTRY
(F) IT'S LIKE AN ANIMAL FARM LOT'S OF RURAL CHARM IN THE(C) COUNTRY

NOW HE'S GOT MORNING GLORY
LIFE'S A DIFFERENT STORY
EVERYTHING GOING JACKANORY
IN TOUCH WITH HIS OWN MORTALITY
HE'S READING BALZAC
KNOCKING BACK PROZAC
IT'S A HELPING HAND
THAT MAKES YOU FEEL WONDERFULLY BLAND
OH IT'S THE CENTURIES REMEDY

FOR THE FAINT AT HEART
A NEW START

HE LIVES IN A HOUSE A VERY BIG HOUSE IN THE COUNTRY
HE'S GOT A FOG IN HIS CHEST SO HE NEEDS A LOT OF REST IN THE COUNTRY
HE DOESN'T DRINK SMOKE LAUGH HE TAKES HERBAL BATHS IN THE COUNTRY
OH IT'S LIKE ANIMAL FARM BUT YOU'LL COME TO NO HARM IN THE COUNTRY

BLOW BLOW ME OUT I AM SO SAD I DON'T KNOW WHY

Вверх

End Of A Century

Intro: G  F  G  F  G  F  C

G		    Gmaj7
She says there's ants in the carpet

Em		      Em with D
Dirty little monsters

Eb		       D
Eating all the morsels

Bm		       C
Picking up the rubbish

G			Gmaj7
Give her effervescence

Em			   Em with D
She needs a little sparkle

Eb		  D
Good morning t.v.

Bm		  C
You're looking so healthy


Em		 D
We all say don't want to be alone

Em			 D
We wear the same clothes cause we feel the same

Em	      D			   C
And kiss with dry lips when we say g'night

C		B C
End of a century, oh it's nothing special


Sex on the t.v.
Everybody's at it
And the mind gets dirty
As you get closer to thirty

He gives her a cuddle, glowing in a huddle
Good night t.v., you're all made up
And you're looking like (me)

(repeat chorus)

G   F   G   F    G   F   C
Can you eat her, yes you can

(repeat chorus 2x)

Вверх


Parklife

E
Confidence is the preference for the
Esus4         E
habitual voyeur of what is known as
Esus4
(Parklife)

E
And morning soup can be avoided if
Esus4      E
you take a route straight through
Esus4
what is known as (Parklife)

E
Johnґs got brewerґs droop he gets
Esus4  E
intimidated by the dirty pigeons they
Esus4
love a bit of it (Parklife)

E
Whoґs that gut lord marching...
Esus4              E
you should cut down on your porklife
Esus4
mate...get some exercise (Parklife)

Chorus:
E   Bb  B
All the people
E  C       B
So many people
G	    Em	    D
They all go hand in hand
C		     Asus4 A   Bb7  B7
Hand in hand through their parklife

I get up when I want,
except on Wednesdays when I get rudely awaken by the dustmen
I put my trousers on, have a cup of tea,
and I think about leaving the house
I feed the pigeons,
I sometimes feed the sparrows too it gives me a sense of
enormous well being
And then Iґm happy for the rest of
the day safe in the knowledge there will
always be a bit of my heart devoted to it

Chorus

Itґs got nothing to do with your
Vorsprung Durch Technic you know
And itґs got nothing to do with you
joggers who go round and round and round

Chorus

Вверх


Song 2

Всё лучше играть квинтами:

A-A-G-G-G--C-C(8)-D(10)-E(12)EEE

I got my head checked
By a jumbo jet
It wasnґt easy but nothing is
No

Woo-hoo
When I feel heavy metal
Woo-hoo
And I?m pins and Iґm needles
Woo-hoo
Well I lie and Iґm easy
All the time but I am never sure
Why I need you
Pleased to meet you

I got my head down
When I was young
Itґs not my problem
Itґs not my problem

Woo-hoo
When I feel heavy metal
Woo-hoo
And Iґm pins and Iґm needles
Woo-hoo
Well I lie and Iґm easy
All the time but I am never sure
Why I need you
Pleased to meet you

Yeah Yeah
Yeah Yeah
Yeah Yeah
Oh Yeah

Вверх


Song 2 (2 вариант)

Well here it is, nothing really complicated just damn loadsa
repeats but its a good song.
Just listen to the song to figure the timing and rythym out.

Not much notation either:

-x- : muffled strings

Intro.(clean): (x2)
E|------------------------------------------------|
B|------------------------------------------------|
G|------------------------------------------------|
D|--x-10-10-xx-8-8-8-xx--13-13-15-17--17-17-17-17-|
A|--x-8--8--xx-6-6-6-xx--11-11-13-15--15-15-15-15-|
E|------------------------------------------------|

Verse:
Fig.1(dist): (x4)
E|-------------------------------------------------|
B|-------------------------------------------------|
G|-------------------------------------------------|
D|--10-10-10-10-8-8-8-8---13-13-15-17--17-17-17-17-|
A|--8--8--8--8--6-6-6-6---11-11-13-15--15-15-15-15-|
E|--8--8--8--8--6-6-6-6---11-11-13-15--15-15-15-15-|
-hoo                                      Whoo-

Then repeat intro (x4)with the words:

I got my head checked
by a jumbo jet
It wasn't easy
but nothing is....no-Whoo

Chorus: (x3)
E|--------------------------------------------------|
B|--------------------------------------------------|
G|--------------------------------------------------|
D|--10-10-10-10--8-8-8-8---13-13-15-17--17-17-17-17-|
A|--8--8--8--8---6-6-6-6---11-11-13-15--15-15-15-15-|
E|--8--8--8--8---6-6-6-6---11-11-13-15--15-15-15-15-|

Chorus lyrics:

When i feel heavy metal, whoo-hoo,
and i'm pins and i'm needles, whoo-hoo,
well i lie and i'm easy

then play on 4th time:
E|-----------------------------------------------------|
B|-----------------------------------------------------|
G|-----------------------------------------------------|
D|--10-10-10-10--10-10-10-10--13-13-13-13--13-13-13-13-|
A|--8--8--8--8---8--8--8--8---11-11-11-11--11-11-11-11-|
E|--8--8--8--8---8--8--8--8---11-11-11-11--11-11-11-11-|
all of the time but i'm    never sure why i need

Interlude.1:
E|-------------------------------------------|
B|-------------------------------------------|
G|-------------------------------------------|
D|--3-3-3-3----3-3-3-3----3-3-3-3----3-3-3-3-|
A|--4-4-4-4----4-4-4-4----4-4-4-4----4-4-4-4-|
E|--4-4-4-4----4-4-4-4----4-4-4-4----4-4-4-4-|
you.               pleased to meet you

Then play Fig.1 (x2)

Then play Intro (x4) with words for verse 2:

I got my head down,
when i was young,
it's not my problem,
it's not my problem.

Then repeat chorus (x1)

Then play interlude.1 again (x1)

Then Fig.1 (x2)

Then outro:
E|--------------------------------------------------|
B|--------------------------------------------------|
G|--------------------------------------------------|
D|--10-10-10-10--8-8-8-8---13-13-15-17--17-17-17-17-|
A|--8--8--8--8---6-6-6-6---11-11-13-15--15-15-15-15-|
E|--8--8--8--8---6-6-6-6---11-11-13-15--15-15-15-15-|
Yeah, yeah                                yeah, yeah

E|-------------------------------------------------------|
B|-------------------------------------------------------|
G|-----------------------------------------------------3-|
D|--10-10-10-10--8-8-8-8--13-13-15-17--17-17-17-17-10----|
A|--8--8--8--8---6-6-6-6--11-11-13-15--15-15-15-15-8-----|
E|--8--8--8--8---6-6-6-6--11-11-13-15--15-15-15-15-8-----|
Oh,     yeah.

And that's it guys!!!

Вверх


Song 2 (3 вариант)

F		D# G# A# C
I got my head checked
F	D# G# A# C
By a jumbo jet
F	D# G# A# C
It wasn't easy
F		D# G# A# C
But nothing is, no

F D#     G#   A#    C
Well I feel heavy metal
F D#	G#       A#  C
And I'm pins and I'm needles
F D#     G#      A#  C
Well I lie and I'm easy

F			G#		 C#
All of the time and I'm never sure why I need you
Pleased to meet ya

F		D# G# A# C
I got my head done
F		D# G# A# C
When I was young
F		D# G# A# C
It's not my problem
F		D# G# A# C
It's not my problem


F D#     G#   A#    C
Well I feel heavy metal
F D#	G#       A#  C
And I'm pins and I'm needles
F D#     G#      A#  C
Well I lie and I'm easy

F			G#		 C#
All of the time and I'm never sure why I need you
Pleased to meet ya

F	D#	G#  A#  C
Yeah, yeah
Yeah, yeah
Yeah, yeah
Oh, yeah

Вверх


Song 2 (4 вариант)

Intro

E|--------------------------|----------------------------------|
B|--------------------------|----------------------------------|
G|--------------------------|------------------17--17--17--17--|
D|--------------------------|--13--13--15--17--17--17--17--17--|
A|-15--15--------13--13--13-|--11--11--13--15--15--15--15--15--|
E|-13--13--------11--11--11-|----------------------------------|

*
E|--------------------------|---------------------------------||
B|--------------------------|---------------------------------||
G|--------------------------|-13--13--15--17--17--17--17--17--||
D|--------------------------|-13--13--15--17--17--17--17--17--||
A|------15--15---13--13--13-|-11--11--13--15--15--15--15--15--||
E|-(0)--13--13---11--11--11-|---------------------------------||

Main 8x

E|-16--16--16--16--16--16--16--16--16--16--||
B|-----------------------------------------||
G|-13--13--13--13--13--13--13--13--13--13--||
D|-----------------------------------------||
A|-----------------------------------------||
E|-----------------------------------------||

Verses 4x

**
E|--------------------------|---------------------------------||
B|--------------------------|---------------------------------||
G|--------------------------|-----------------17--17--17--17--||
D|--------------------------|-13--13--15--17--17--17--17--17--||
A|-15--15--------13--13--13-|-11--11--13--15--15--15--15--15--||
E|-13--13--------11--11--11-|---------------------------------||

Chorus 16x

***
E|---16--16--16--16--16--16--16--16--16--16--||
B|-------------------------------------------||
G|---13--13--13--13--13--13--13--13--13--13--||
D|-------------------------------------------||
A|-------------------------------------------||
E|-------------------------------------------||

Outro 8x                                     Ending

*** **** +
E|--20--20--20--20--20--20--20--20--20--20--|--20-------------||
B|------------------------------------------|---------0-----x-||
G|--17--17--17--17--17--17--17--17--17--17--|--17-------------||
D|------------------------------------------|-----------------||
A|------------------------------------------|-----------------||
E|------------------------------------------|-----------------||

* = Fill 1

Gtr. 2 (dist)

B|-21--21-|

** = Fill 2,  first verse first time

Gtr. 2 (dist)

E|-16-|
B|----|
G|-13-|

*** = Fill 3 13th time in chorus 2x, first 2x of outro

Gtr. 3 (dist), bass in live version

E|-41--41--4-4-6-8---8-|

**** = Fill 4 last 2x of outro

Gtr. 3 (dist), bass in live version

E|-41--4/8--------41/41/8-|

+ = Gtr. 2 plays Main

Rhythm of Main, Chorus, and Outro (e = 8th, s = 16th):

e   e   e   s   s   e   e   e   s   s
E|-16--16--16--16--16--16--16--16--16--16-|
B|----------------------------------------|
G|-13--13--13--13--13--13--13--13--13--13-|

Вверх


Tender

Intro:

E --------------------0----------------h-p-----------------
B ----0-2-0-------0-2---1/2---------2-2-3-2---------3-1/2--
G --2-------2-2-2-----------2---2-----------1---1-1-1-1/2--
D ----------------------------2-------------2--------------
A --------------------------------0------------------------
E --------------------------------------------0------------

E ----------------------0--------------h-p--------0---0--------
B ----0-2-0---------0-2---1/2-------2-2-3-2---------0---0---2--
G --2---2-----2---2-----------2-------------0-1-------------2--
D ----------2-------------------2---------------2---------2----
A --------------0-----------------0----------------------------
E -------------------------------------------------------------

E --------------------------------
B --------2-2-----2--------2-2----
G --2--2------2-2----2--2------2--
D --------------------------------
A --------------------------------
E --------------------------------

E ----------------------------0--------------------h-p---------
B ----0-2-0-------------0-1/2---1/2-----------2-2-2-3-2--------
G --2-------2---------2-----------------------2---------0-1----
D ------------2---------------------2-----------------------2--
A --------------0-0-0-----------------0-0-0-0------------------
E -------------------------------------------------------------

E -----------------------
B --3-----3-1-2----------
G ----1---1-1-2----------
D ------2-2-----2--------
A ----------------0-0-0--
E -----------------------

A                   G             A
Tender is the night lying by your side

A                      G                A
Tender is the touch of someone that you love too much

A                     G          A
Tender is the day the demons go away

A                   G               A
Lord I need to find someone who can heal my mind



A                              D   C
Come on, come on, come on,     get through it

A                              C#m        D
Come on, come on, come on,     loveґs the greatest thing

A                              D   C
Come on, come on, come on,     get through it

A                              C#m        D
Come on, come on, come on,     loveґs the greatest thing

C#m     D
That we have

C#m              D
Iґm waiting for that feeling

C#m              D
(Iґm) Waiting for that feeling

A                D          A
Waiting for that feeling to come


A                          E7      A
Oh my baby, oh my baby, oh why, oh my

A                       E7      A
Oh my baby, oh my baby, oh why, oh my



A			 G		  A
Tender is the ghost, the ghost I love the most

A		     G		     A
Hiding from the sun, waiting for the night to come

A		       G	      A
Tender is my heart for screwing up my life

A		    G		    A
Lord I need to find someone who can heal my mind


Solo:

E ----------------------------------------5-3-0-2-3-2-0-------
B -----------5----------------------2-------------------------
G --5^-5^-5^---5^-0------h-p----------2-----------------5^-0--
D -------------------h--0-2-0---------------------------------
A ------------------0-2-------2-0-0-----0---------------------
E ------------------------------------------------------------

E -------------------
B -------------------
G -------h-p---------
D ---h--0-2-0--------
A --0-2-------2-0-0--
E -------------------

Вверх

The Universal

Everytime when A & C#m are played,in the verses, do this:
A        C#m
e-|-------5-------4-----|
B-|-------5-------5-----|
G-|-------6---4h6-6-----|
D-|---------------------|
A-|--0------------------|
E-|---------------------|

and everytime when E & Bm are played, in the verses, do this:
E         Bm
e-|-------4-------2-----|
B-|-------5-------3-----|
G-|-------4---2h4-4-----|
D-|---------------------|
A-|---------------------|
E-|-0-------------------|

Intro:
-----
Am6/C
A   C#m,  A   C#m    X3

Verse1:
------
A      C#m      A             C#m       A      C#m
this is the next cent'ry                ......

A      C#m       E           Bm         E           Bm

A              C#m       A   C#m       A           C#m
Every night ......
A      C#m          E        Bm         E            Bm
how we .......

Chorus: (just strum the chords)
------
Asus4                            D
It really, really, really, could happen,
Asus4                            D
yes it really, really,really, could happen.
C#m
When the days   the seem to fall through you,

D           D/C#         Bm       E
just____    let them   go___
e-|(fill1)------------------|
B-|-------------------------|
G-|--------3-------------3--|
D-|----2---2-------------2--|
A-|-0---------0-------------|
E-|--------------4----------|

Little trumpet solo: (I have the solo in tab format if anyone is intrested)
-------------------
A    C#m  X3

Verse2: (same as verse1)
------

[Repeat Chorus Twice and then repeat chorus
without words, except some backing vocals
on the "Let them go"]

Outro:
-----
Bm              E                              A
e-|---------------|-0-----------|----------------|-0-----------|
B-|----3----------|-0-----------|----------------|-2-----------|
G-|----4---4---1--|-1-----------|----------------|-2-----------|
D-|----4----------|-2------0----|-------------1--|-2-----------|
A-|-2--2----------|-2-----------|--4------2------|-0-----------|
E-|---------------|-0-----------|----------------|-------------|

Вверх


You’re So Great

Intro:

D#|-0-0-3-2-0--1---1-1-1-|
Bb|-0-0-0-0-0--1---1-1-1-|
F#|-0-0-0-0-0--0---0-0-0-|
C#|-2-2-2-2-2--3---3-3-3-|
G#|-2-2-2-2-2--3---3-3-3-|
D#|-0-0-0-0-0--1---1-1-1-|

G               Bm/F#
Sad, drunk, and poorly
Cmaj7           G
Sleep in really late
G               Bm/F#
Sad, drunk, and poorly
Cmaj7          Am7
Not feeling so great
G         Fadd9                  C
Wandering lost in a town full of frowns
G               Em
Sad, drunk, and poorly
Cmaj7               Am7  F   D  Asus4
Dogs digging up the ground

G          Em
And I feel the light
Bm               C
In the night and in the day
G          Em
And I feel the light
Bm                 Amadd9
When the skyґs just mud and grey
G          Em
And I feel the light
Bm           Fadd9 G  Fadd9  G
When you tell me itґs OK
Fadd9                  Am   Amsus2
Cos youґre so great, and I love you

D#|----------------------p-------------------------------------|
Bb|-----------------/7--8-7------------------------------------|
F#|----------74--/7---------8-8-/5----0-7-5-5-54-0--2-7-75-5-4-|
C#|-85-5-7-5----5/7----------------7---------------------------|
G#|------------------------------------------------------------|
D#|------------------------------------------------------------|

D#|------------------------------------------------------------|
Bb|-------------------------------------------------------p----|
F#|-4^-0-2^-0-2^-0/7-7-9---------10-9-10-109--------0-0-7-0-/7-|
C#|----------------------9-7-9-9-------------9-10-10--------/7-|
G#|------------------------------------------------------------|
D#|------------------------------------------------------------|

D#|--(7)--------------------------------/4-/6-|
Bb|-------------------------------------/5-/7-|
F#|--------8/9--5-54--5-54-0-0-5-54-0---------|
C#|-------------------------------------------|
G#|-------------------------------------------|
D#|-------------------------------------------|

G            Bm/F#
Tea, tea and coffee
Cmaj7              G
Helps to start the day
G            Bm/F#
Tea, tea and coffee
Cmaj7           Am7
Shaking all the way
G       Fadd9         		  C
Cityґs alive and, surprise, so am I
G            Em
Tea, tea and coffee
Cmaj7          Am7   F   D   Asus4
Get no sleep today

G          Em
And I feel the light
Bm               C
In the night and in the day
G          Em
And I feel the light
Bm                 Amadd9
When the skyґs just mud and grey
G          Em
And I feel the light
Bm           Fadd9 G Fadd9 G Fadd9 G
When you tell me itґs OK
F                      Am   Amsus2
Cos youґre so great, and I love you

D#|-3-3-3-3-3-3-3-|
Bb|-0-0-0-0-0-0-0-|
F#|-0-0-0-0-0-0-0-|
C#|-0-0-2-0-0-0-0-|
G#|-2-2-3-2-2-2-2-|
D#|-3-3---3-3-3-3-|

D#|-00-0-0-3-2-0--1-1-1-1-1--1-1-1-1--00-0-0-0-0-0--2-|
Bb|-00-0-0-0-0-0--1-1-1-1-1--1-1-1-1--11-1-1-1-1-1--3-|
F#|-00-0-0-0-0-0--2-2-2-2-2--1-1-1-1--00-0-0-0-0-0--2-| 4x
C#|-22-2-2-2-2-2--3-3-3-3-3--3-3-3-3--22-2-2-2-2-2----|
G#|-22-2-2-2-2-2--3-3-3-3-3--3-3-3-3--33-3-3-3-3-3----|
D#|-00-0-0-0-0-0--1-1-1-1-1--1-1-1-1------------------|

D#|-0-0-3-2-0--1-|
Bb|-0-0-0-0-0--1-|
F#|-0-0-0-0-0--2-|
C#|-2-2-2-2-2--3-|
G#|-2-2-2-2-2--3-|
D#|-0-0-0-0-0--1-|

Вверх