Braxton Toni


Let It Flow



Spanish Guitar (Intro)



Spanish Guitar (Intro Ver
2)



Unbreak My Heart



Unbreak My Heart (2
вариант)


Вверх


Let It Flow

Guitar 1:
C Am7 Em7 Dm7
e|-------------|-------------------|-----------------|------------0----------|
B|--0h1--0-----|--1----------------|--0h1---0--------|--6--------------------|
G|-------------|------0-----------0|-----------------|-----5-----------------|
D|-------------|----------2---0h2--|-----------------|-------7---------------|
A|--3----------|--0----------------|-----------------|--5--------------------|
E|-------------|-------------------|--0--------------|-----------------------|
C Am7 Em7 Dm7
e|-------------|-------------------|-----------------|---------------0-------|
B|--0h1----0---|--1----------------|--1--------------|--6--------------------|
G|-------------|------0------------|------0----------|-----5-----------------|
D|-------------|----------2---0h2--|-----------2-----|--------7--------------|
A|--3----------|--0----------------|--0--------------|--5--------------------|
E|-------------|-------------------|-----------------|-----------------------|
Guitar 2
e|---------------------------------------------------------------------------|
B|--0--1--1/3---------1--------------1/3----------------1--------------------|
G|--0--2--2/4---------2--------------2/4----------------2--------------------|
D|---------------------------------------------------------------------------|
A|---------------------------------------------------------------------------|
E|---------------------------------------------------------------------------|
Guitar 1
Bridge
E (on G#) Am7 E (on G#) Am7|G
e|-----------------0--|--------------0--|--------------0-|-------------------|
B|--------------------|----------1------|----------------|------1----1-------|
G|-----------4--------|------0----------|---------4------|----0-----0----0---|
D|------2-------------|-----------------|-----2----------|---------2---------|
A|--------------------|--0--------------|----------------|--0----------3-----|
E|--4-----------------|-----------------|--4-------------|--------3----------|
E (on G#) Am7 Bb maj 7
e|-----------------0--|-----------0-----|------------------------------------|
B|--------------------|--------1--------|--3----------3----------------------|
G|------------4-------|-----0-----------|-----2-----------2------------------|
D|--------2-----------|-----------------|---------3-----------3---3----------|
A|--------------------|--0--------------|--1----------1----------------------|
E|--3-4---------------|-----------------|------------------------------------|
F (on G) Back to main line
e|--0---0----0--------|------------------------------------------------------|
B|--1---1----1--------|------------------------------------------------------|
G|--2---2----2--------|------------------------------------------------------|
D|--3---3----3--------|------------------------------------------------------|
A|--------------------|------------------------------------------------------|
E|--3---3----3--------|------------------------------------------------------|
Lets do this!


"Let It Flow"

First thing early Monday morning
I'm gonna pick my tears away
Got no cause to look back
I'm lookin' for me a better day
You see the thing 'bout love
Is that it's not enough
If the only thing it brings you is pain
There comes a time when we could all make a change

Just let go
And let it flow, let it flow, let it flow
Everything's gonna work out right,
Ya know
Let go, and let it flow, let it flow, let it flow
Just let go

Don't nobody want no broken heart
And don't nobody want no two time losers
Ain't nobody gonna love you like you are
If you take whatever he brings your way
You see the thing of it
Is we deserve respect
But we can't demand respect without change
There comes a time when we must go our own way

Just let go
And let it glow, let it flow, let it flow
Everything's gonna work out right,
Y'know
Let go,a nd let it flow, let it flow, let it flow
Just let go

Sometimes love it can work out right
Sometimes you'll never know
But if it brings only pain in your life
Don't be afraid to let it go

Вверх


Spanish Guitar (Intro)

E |--1--0--1--3--1--0--1---------------|
B |--3--------------------------1--0---|
G |--2---------------------------------|
D |--3---------------------------------|
A |-----------------------3--2---------|
E |------------------------------------|

E |--------0---------------------|
B |--2--3-----3--2--3--2--0--2---|
G |------------------------------|
D |------------------------------|
A |------------------------------|
E |------------------------------|

E |--7--8--10--8--8--7--7-------|
B |------------------------------|
G |-------------------------1----|
D |-------------------------2----|
A |-------------------------2----|
E |------------------------------|

E |---------------------------------------------|
B |--3--2--0-----0---THIS LEADS TO THE SONG-----|
G |-----------2---------------------------------|
D |---------------------------------------------|
A |---------------------------------------------|
E |---------------------------------------------|

After the song's started, you'll hear this after the first verse....

E |-----0---------------|
B |--2-----3--2--0--2---|
G |---------------------|
D |---------------------|
A |---------------------|
E |---------------------|

Вверх


Spanish Guitar (Intro Ver
2)

----1--0-1-3-1-0-1-0---------------------------------|
---3----------------------1-0---0-1-3-1-0-3-1-0----1-|
--2-----------------------------------------------2--|
-0----------------------0------------------------2---|
----------------------2-------------------------0----|
--------------------3--------------------------------|

-7-8-10-8-7---------------00-0-----------------------|
------------8-------------00-0-----------------------|
--------------9-0------00-0-----------------------|
--------------------------22-2-----------------------|
--------------------------22-2-----------------------|
--------------------------00-0-----------------------|

Вверх


Unbreak My Heart

Verse 1:
Bm             Em                 A                         F#
Don't leave me in all this pain, don't leave me out in the rain.
Bm                   Em
Come back and bring back this smile,
A                     F#
come and take these tears away.
Bm                Em               A               F#
I need your arms to hold me now, the nights are so unkind.
Bm                Em                       A
Bring back those nights when I held you beside me.

Chrous:
F#           Dm    Gm                   C
Un~Break my heart, say you'll love me again.
A           Dm
Un~do this hurt you caused when you
Gm                            C
walked out the door and walked out of my life.
A            Dm          Gm             C
Un~cry these tears, I've cried so many nights.
A            Dm         A        F#
Un~Break my heart..... My heart.

Verse 2:
Bm              Em              A                F#
Take back that sad word goodbye, bring back the joy to my life.
Bm              Em
Don't leave me here with these tears,
A               F#
come and kiss this pain away.
Bm               Em              A            F#
I can't forget the day we laughed, time is so unkind.
Bm              Em                       A
And life is so cruel without you here beside me.

Chrous:
F#           Dm    Gm                   C
Un~Break my heart, say you'll love me again.
A           Dm
Un~do this hurt you caused when you
Gm                            C
walked out the door and walked out of my life.
A            Dm          Gm             C
Un~cry these tears, I've cried so many nights.
A            Dm         A
Un~Break my heart.....

Bridge:
Bm             Em                 A               F#
Don't leave me in all this pain, don't leave me out in the rain.
Bm              Em                       A
Bring back the nights when I held you beside me.

Chrous:
Dm    Gm                   C
Un~Break my heart, say you'll love me again.
A           Dm
Un~do this hurt you caused when you
Gm                             C
walked out the door and walked out of my life.
A            Dm           Gm                  C
Un~cry these tears, I've cried so many, many nights.
A
Un~break my.......
Dm           Gm           C              A
Un~break my heart oh baby come back and say that you love me.
Dm          Gm                   C           A
Un~break my heart sweet darling, without you I just can't go on.
Dm                    Gm
Say that you love me, say that you love me,
C                    A
tell me you love me, un~break my.

Repeat lang ng repeat yung last line at chords tapos tapos na..
Yung lead hindi ko alam.. hehehe..

michiegilbert

Вверх


Unbreak My Heart (2
вариант)

Intro
Fm "Slow strum"
E|--------------------------------------------3-|
B|----------------7-8-7------2---------------3--|
G|-3-4-6-7--7-7-9-------7-9----4-2-4--------2---|
D|----------------------------------------4-----|
A|--------------------------------------4-------|
E|------------------------------------2---------|

Verse

Bm                      A
E|-----------------------------------------------------|
B|-------3----3----3----3--------2----2----2-2h3p2-0---|
G|-----4----4----0----0--------2----2----2-----------2-|
D|---4----4----4----4--------2----2----2---------------|
A|-2-----------------------0---------------------------|
E|-----------------------------------------------------|

E|---------------------0-----------------------2-|
B|--------3----3----3----3-------2-----2-----2---|
G|------4----4----0------------2-----2-----2-----|
D|----4----4----4----4-------2-----2-----2-------|
A|--2----------------------0---------------------|
E|-----------------------------------------------|

E|----------------------2-0-----------------------------------|
B|--------3-----------3-----3---------2----2----2-3-2h3p2-0---|
G|------4--4--------4---------4-----2----2----2-------------2-|
D|----4-----------4---------------2----2----2-----------------|
A|--2--------2-2----------------0-----------------------------|
E|------------------------------------------------------------|

E|---------------------0-----------------------0-|
B|--------3----3----3----3-------2-----2-----2---|
G|------4----4----0------------2-----2-----2-----|
D|----4----4----4----4-------2-----2-----2-------|
A|--2----------------------0---------------------|
E|-----------------------------------------------|

Chorus
|Dm             |Gm            |C           |A
E|-------1-1-0-----------3-------------0-------------0-------|
B|-----3-------3-------3---3---3---------1---1---------2---2-|
G|---2-----------2---3-------3-------0-----0-------2-----2---|
D|-0---------------0---------------2-------------2-----------|
A|-------------------------------3-------------0-------------|
E|-----------------------------------------------------------|X2

E|-------1-1-0h1p0-----------3----------|
B|-----3-----------3-------3---3---3----|
G|---2---------------2---3-------3--3---|
D|-0-------------------0----------------|
A|------------------------------------3-|
E|--------------------------------------|

E|-----0---------------0---------|
B|-------1---1-----------2---2---|
G|---0-----0---0-----2-----2---2-|
D|-2---------------2-------------|
A|---------------0---------------|
E|-------------------------------|

E|-------1-1-0-----------3-------------0-------------0-------|
B|-----3-------3-------3---3---3---------1---1---------2---2-|
G|---2-----------2---3-------3-------0-----0-------2-----2---|
D|-0---------------0---------------2-------------2-----------|
A|-------------------------------3-------------0-------------|
E|-----------------------------------------------------------|

Dm         |Gm          |A
E|-------1----------3---------------0----------|
B|-----3----3-----3---3-----------2---2----2---|
G|---2----------3-------3-------2------------2-|
D|-0----------0---------------2----------------|
A|--------------------------0------------------|
E|---------------------------------------------|

Verse

Вверх