P.O.D


Alive (Ver 9)



Anything Right



Boom



Brown



Bullet The Blue Sky



Celestial



Вверх


Alive (Ver 9)

Intro:
D|------------------------------------------------------------------|
A|------------------------------------------------------------------|
F|------------------------------------------------------------------|
C|------------------------5-5-5--5-5-5-5-5------5-5-5-5-------------|
G|-2-2-2-0-2------0-0-0-0-3-3-3--3-3-3-3-3------3-3-3-3-5-5-5-------|
C|-2-2-2-0-2--------------------------------------------5-5-5-------|

Verse: play riff 1 3x then play...
D|------------------------------------------------------------------|
A|------------------------------------------------------------------|
F|------------------------------------------------------------------|
C|------------------------5-5-5--5-5-5-5-5--------------------------|
G|-2-2-2-0-2------0-0-0-0-3-3-3--3-3-3-3-3------5-5-----5-----------|
C|-2-2-2-0-2------------------------------------5-5-0-0-5-0---------|

Chorus:
D|---------------2------------|-------------------------------------|
A|---------------3------------|-------------------------------------|
F|-0-------------0------------|-------------------------------------|
C|----------------------------|---------5-5-5-4---4-4---4-----0-----|
G|-3-3-3-3-3-3-3-3------------|-2-2-2-2-2-2-2-2---2-2---2-----0-----|
C|----------------------------|-2-2-2-2-2-----2---------------0-----|

D|---------------------------------------------------------------------------|
A|---------------------------------------------------------------------------|
F|---------------------------------------------------------------------------|
C|---------------------------------------------------------------------------|
G|-5-5-5-5--5-5-5-5--5-5-5-5--5------5-5-5-5--5-5-5-5--10p97-9----75p0-----|
C|-5-5-5-5--5-5-5-5--5-5-5-5--5-0----5-5-5-5--5-5-5-5------------------------|

Interlude:with distortion,delay & flanger

D|--------------------------14h15p14-14h15p14-14h15p14-14h15p14--15p14-------|
A|---------------------------------------------------------------------------|
F|---------0-----------------------------------------------------------------|
C|-2~--(2)------4------0-----------------------------------------------------|
G|---------------------------------------------------------------------------|
C|---------------------------------------------------------------------------|

D|-15p14-15p14-15p14--15p14-15p14h15p14h15-|
A|-----------------------------------------|
F|-----------------------------------------|
C|-----------------------------------------|
G|-----------------------------------------|
C|-----------------------------------------|

Breakdown
D|-------------------------|
A|-------------------------|
F|---------0---------------|
C|-2~--(2)------4-----0----|
G|-------------------------|
C|-------------------------|

D|-14h15p14-15p14--15p14--15p14--15p14--15p14-14-15p14-14-15p14-14-15p14-14-15-|
A|------------------------------------------------------------------------------|
F|------------------------------------------------------------------------------|
C|------------------------------------------------------------------------------|
G|------------------------------------------------------------------------------|
C|------------------------------------------------------------------------------|

Outro:
D|---------------------------------|
A|---------------------------------|
F|---------------------------------|
C|---------------------------------|
G|-2-2-2-0-2------0-0-0-2-0-2------|
C|-2-2-2-0-2------0-0-0-2-0-2------|

Вверх


Anything Right

-------------------------------------------------------------------------------
-------------------------------------------------------------------------------
-------------------------------------------------------------------------------
--4-4-5-4-0---4-4-5-7----5-4-5-4-2---2-2-3-2-------2-2-3-5----3-2-3-2-0-0------
---------------------------------------------3---------------------------------
-------------------------------------------------------------------------------

Вверх


Boom

e-------------------------------------------------------------------------------
B-------------------------------------------------------------------------------
G-------------------------------------------------------------------------------
D-------------------------------------------------------------------------------
A-------------------------------------------------------------------------------
E--1-1-1-1-1--0-0-0-1-1-1-1-1--0-0-0--4-4-4-4-4-4-4-4--6-6-6-6-6-6-6-6----------

Вверх


Brown

e-----------------------------------------------------------------|
b-----------------------------------------------------------------|
g-----------------------------------------------------------------|
d-----------------------------------------------------------------|
A-------------3--3--3--0---3-0--1------------3--3--3--0---3-0--5--|
D---0--0---0-----------------------0--0---0-----------------------|

PM-----------------------------------------------------------|

______________________________________

Riff B (4 times)

e-------------------------------------|
b-------------------------------------|
g-------------------------------------|
d---0--0---5p3--------3--3---5--3--0--|
A---0--0-------5p3p0--3--3---5--3--0--|
D---0--0--------------3--3---5--3--0--|

PM-----|
______________________________________

Riff C (lots of harmonics, FUN TOO)

e------------------------------------------------------------|
b--------------------------------------------------------5---|
g-----------------------------------------5------------5-----|
d--3--3---5---5---3--3-----------0--0-------5---0--0---------|
A--3--3-----5-----3--3---5---5---0--0---5-------0--0---------|
D--3--3-----------3--3-----5-----0--0-----------0--0---------|
* * * * * * * * * * *
_____________________________________

Riff D

e-----------------------------------------------|
b-----------------------------------------------|
g-----------------------------------------------|
d---3--3----3---3--3----3---3--3----3---3/5-----|
A---3--3----3---3--3----3---3--3----3-----------|
D---3--3----3---3--3----3---3--3----3-----------|

Вверх


Bullet The Blue Sky

Intro: (Note: Don't let the Am that you slide down to from the Dm ring.)
Just let feedback pour out of your amp. Then:
E-x-x-x-x---------
B-x-x-x-x-6~--6/1-
G-x-x-x-x-7~--7/2-
D-x-x-x-x-7~--7/2-
A-x-x-x-x-5~--5/0-
D-x-x-x-x-0~------

Dm (05776x)
/ = slide

Verse 1: Just let this ring while feedback pours out of your amp. (The D in
the parentheses can be played instead of the D on the A string.)
E-----
B-----
G-----
D-(0)-
A--5--
D--0~-

Chorus:
E----------------------------
B-3-3/5-5-5/6-6-1-1-1/3------
G----------------------------
D----------------------------
A----------------------------
D----------------------------

Verse 2: On this verse, it sound like Marcos is playing this:
E-------------------------
B-------------------------
G-------------------------
D-------------------------
A-5-5-5--5-5-5-5--5-5-3-3-
D-0-0-0--0-0-0-0--0-0-0-0-

(Chorus)
(Intro again)
(Verse 1 guitar)

Solo: sb = slight bend, b = bend
E-10----10---10----10-----------------------------------------------------------------
B---10----10---10----10---------------------------------------------------------------
G-----10---10----10----10-10/12-12-12-12-12-12-12sb-12b-10/12-12-12-12-12-12-12sb-12b-
D-------------------------------------------------------------------------------------
A-------------------------------------------------------------------------------------
D-------------------------------------------------------------------------------------


E-10----10----10----10-----------------------------------------------------------------
B---10----10----10----10---------------------------------------------------------------
G-----10---10-----10----10-10/12-12-12-12-12-12-12sb-12b-10h12-10h12-10h12-10h12-10h12-
D--------------------------------------------------------------------------------------
A--------------------------------------------------------------------------------------
D--------------------------------------------------------------------------------------

E--------------------8~-7-7~-5-5~-1-1~-8~-7-7~5-5~-11h13-11h13-11h13-11h13-11h13-
B--------------------------------------------------------------------------------
G-10h12-10h12-10h12--------------------------------------------------------------
D--------------------------------------------------------------------------------
A--------------------------------------------------------------------------------
D--------------------------------------------------------------------------------

E-11h13-11h13-11h13-14b----------
B--------------------------------
G--------------------------------
D--------------------------------
A--------------------------------
D--------------------------------

(Chorus)

The hit a D5 (000xxx) and let it fade out while Sonny does Bono's talk.

godbless.

Вверх


Celestial


Вверх

D|----5---5---5---3---3---3-----------8---8---8---5---5---5----|
A|-3----3---3---3---3---3---3----3/6----6---6---6---6---6---6--|
F|-2------2---2---2---2---2------2/5------5---5---5---5---5----|
C|-------------------------------------------------------------|
G|-------------------------------------------------------------|
D|-------------------------------------------------------------|

Вверх