System of a down


Aerials



Aerials 2



Deer Dance



Forest



Innervision



Jet Pilot



Know



Needles



Prison Song



Shimmy



Spiders



Sugar


Вверх


Aerials

Part A   The clean part in the beginning starts out in bass:

------------------------------------------------------------------------------------
------------------------------------------------------------------------------------
---6-5-3---8-6-5---6-8-10-11-10-8-6-5-3---8-6-5---10-8-7---8-10-12-13-12-10-8-6-5---
------------------------------------------------------------------------------------

Then the heavy part kicks in and the guitar plays in overdrive:

Part B-------------------------------------------------------------------------------- X3
--------------------------------------------------------------------------------------
--------------------------------------------------------------------------------------
---6-------6-------------------10---------------8----------------7----------------5---
---6-------6-------10-10-10-10-8----10-10-10-10-6----10-10-10-10-5----10-10-10-10-3---
---4-------4-------8--8--8--8-------8--8--8--8-------8--8--8--8-------8--8--8--8------

After Part B, you play this:

---------------
---------------
---------------
---6-------6---
---6-------6---
---4-------4---

The song then returns to Part A. But it is played like this instead:

------------------------------------------------------------------------------------
------------------------------------------------------------------------------------
------------------------------------------------------------------------------------
------------------------------------------------------------------------------------
---6-5-3---8-6-5---6-8-10-11-10-8-6-5-3---6-5-3---8-6-5---6-8-10-11-10-8-6-5-3------
------------------------------------------------------------------------------------

When Part B comes around again, on the fourth time, it goes like this:

-------------------------------------
-------------------------------------
-------------------------------------
---6-------6-------5-5-5-5-5-5-5-5---
---6-------6-------5-5-5-5-5-5-5-5---
---4-------4-------3-3-3-3-3-3-3-3---

After that it turns into an overdrive variation of Part A:

------------------------------------------------------------------------------------
------------------------------------------------------------------------------------
------------------------------------------------------------------------------------
---8-7-5---10-8-7---8-10-12-13-12-10-8-7-5---8-7-5---10-8-7---8-10-12-13-12-10-8-7-5
---6-5-3---8--6-5---6-8--10-11-10-8--6-5-3---6-5-3---8--6-5---6-8--10-11-10-8--6-5-3
------------------------------------------------------------------------------------

And finally the song returns to the regular Part A. You will play it four times and the song will end on this:

-----
-----
-----
-----
--5--
--3--

Вверх


Aerials 2

tuning: C G C G B E
Time: 4/4

Intro(cello sounding part)
-------|------|-----|------|
-------|------|-----|------|
--7----|------|--5--|------|
-------|--8---|-----|--7---|
--5----|------|--3--|------|
-------|--8---|-----|--7---|

Guitar 1 Intro(In 8th notes clean)
|---------------|----------------|---------------|------------------|
|---------------|----------------|---------------|------------------|
|---------------|----------------|---------------|------------------|
|----0-----0----|-0-----0-----0--|-----0-----0---|-0-----0------0---|
|--0-----0-----0|-----0-----0----|---0-----0----0|-----0-----0------|
|3-----2-----0--|---0-----0-----0|-5-----3----2--|---2-----2------2-|


|--------------|-----------------|----------------|----------------|
|--------------|-----------------|----------------|----------------|
|--------------|-----------------|----------------|----------------|
|----0----0----|-0-----0----0----|-----0-----0----|-0-----0-----0--|
|--0----0-----0|-----0----------0|---0-----0-----0|-----0-----0----|
|3----5-----7--|---8-----7----5--|-3-----2-----0--|---0-----0-----0|
/
Guitar 2 comes in here
Guitar 2(cello sound again)This riff is played while guitar 1 intro is
played.
Vibrato w/whammy bar on all these notes.
|---------------|----------------|---------------|------------------|
|---------------|----------------|-----------8---|------------------|
|---------------|----------------|(Carry into next measure)---------|
|---------------|----------------|-----------5---|------------------|
|---------------|----------------|---------------|------------------|
|---------------|----------------|---------------|------------------|

Guitar1
|-----------------|-----------------|-----------------|---------
|-----------------|-----------------|-----------------|---------
|-----------------|-----------------|-----------------|---------
|-----0------0----|-0-----0-----0---|-----0------0----|-0-----0-
|---0------0-----0|-----0-----0-----|---0------0-----0|-----0---
|12-----10-----7--|---7-----7-----7/|14-----10-----7--|---7-----







Guitar 2
|--10------------|------------------|---8-------------|---------
|----(carry to)--|------------------|-------(carry)---|---------
|--7-(next again)|------------------|---5-------------|---------
|----------------|------------------|-----------------|---------
|----------------|------------------|-----------------|---------
|----------------|------------------|-----------------|---------

Guitar1
--------|------------------|-------------------|---------------
--------|------------------|-------------------|---------------
--------|------------------|-------------------|---------------
----0---|-----0------0-----|-0------0----0-----|---------------
--0-----|---0------0------0|------0-----------0|----------0----
7-----7/|12-----14-----15--|---17-----15---14--|-12-12/10------

Guitar 2
--------|----------------|---------------------|---8-----------|
--------|-6--(carry)-----|---------------------|-------(carry)-|
--------|----------------|---------------------|---5-----------|
--------|-3--------------|---------------------|---------------|
--------|----------------|---------------------|---------------|
--------|----------------|---------------------|---------------|

Guitar 1
----|--------------------|
----|--------------------|
----|--------------------|
----|-12--12--12--12--12-|
---0|--0---0---0---0---0-|
12--|-12--12--12--12---0-|

Verse(heavy distortion)
|---------------------------|--------|--------|-------|--------|
|-------(REPEAT)------------|--------|--------|-------|--------|
|---------------------------|------12|------10|------9|------7-|
|8---8--8-8---8-8---8-8-8-8-|-0000---|-0000---|-0000--|-0000---|
|8---8--8-8---8-8---8-8-8-8-|-0000-10|-0000-8-|-0000-7|-0000-5-|
|8---8--8-8---8-8---8-8-8-8-|-0000---|-0000---|-0000--|-0000---|
(pm) (pm) (pm) (pm)

Chorus (clean)

|---------------|----------------|---------------|------------------|
|---------------|----------------|---------------|------------------|
|---------------|----------------|---------------|------------------|
|----0-----0----|-0-----0-----0--|-----0-----0---|-0-----0------0---|
|--0-----0-----0|-----0-----0----|---0-----0----0|-----0-----0------|
|3-----2-----0--|---0-----0-----0|-5-----3----2--|---2-----2------2-|


|--------------|-----------------|----------------|----------------|
|--------------|-----------------|----------------|----------------|
|--------------|-----------------|----------------|----------------|
|----0----0----|-0-----0----0----|-----0-----0----|-0-----0-----0--|
|--0----0-----0|-----0----------0|---0-----0-----0|-----0-----0----|
|3----5-----7--|---8-----7----5--|-3-----2-----0--|---0-----0-----0|






Outro/bridge w/dist

|--------|---------|---------|---------|
|--------|---------|---------|---------|
|--------|---------|---------|---------|
|7-7-7-7-|-7-7-7-7-|-7-7-7-7-|-7-7-7-7-|
|7-7-7-7-|-7-7-7-7-|-7-7-7-7-|-7-7-7-7-|
|7-7-7-7-|-7-7-7-7-|-7-7-7-7-|-7-7-7-7-|
(pm) (pm)


|-----------|---------|------------|-----------|----------|
|-----------|---------|------------|-----------|----------|
|-----------|---------|------------|-----------|----------|
|-3--2--0---|---------|-5--3---2---|--2--2-2---|-3--5--7--|
|-3--2--0---|---------|-5--3---2---|--2--2-2---|-3--5--7--|
|-3--2--0---|-0-0-0-0-|-5--3---2---|--2--2-2---|-3--5--7--|

|--------------|------------|------------|
|--------------|------------|------------|
|--------------|------------|------------|(3x)
|--8--7--5-----|--3--2--0---|------------|
|--8--7--5-----|--3--2--0---|------------|
|--8--7--5-----|--3--2--0---|---12------|
(clean)
|---------------|----------------|---------------|------------------|
|---------------|----------------|---------------|------------------|
|---------------|----------------|---------------|------------------|
|----0-----0----|-0-----0-----0--|-----0-----0---|-0-----0------0---|
|--0-----0-----0|-----0-----0----|---0-----0----0|-----0-----0------|
|3-----2-----0--|---0-----0-----0|-5-----3----2--|---2-----2------2-|


|--------------|-----------------|----------------|----------------|
|--------------|-----------------|----------------|----------------|
|--------------|-----------------|----------------|----------------|
|----0----0----|-0-----0----0----|-----0-----0----|-0-----0-----0--|
|--0----0-----0|-----0----------0|---0-----0-----0|-----0-----0----|
|3----5-----7--|---8-----7----5--|-3-----2-----0--|---0-----0-----0|

|---------------|----------------|---------------|------------------|
|---------------|----------------|---------------|------------------|
|---------------|----------------|---------------|------------------|
|----0-----0----|-0-----0-----0--|-----0-----0---|-0-----0------0---|
|--0-----0-----0|-----0-----0----|---0-----0----0|-----0-----0------|
|3-----2-----0--|---0-----0-----0|-5-----3----2--|---2-----2------2-|


|--------------|-----------------|----------------|
|--------------|-----------------|----------------|
|--------------|-----------------|----------------|
|----0----0----|-0-----0----0----|-----0-----0----|
|--0----0-----0|-----0----------0|---0-----0------|
|3----5-----7--|---8-----7----5--|-3-----2-----0--|


Order of song
Intro 1x
Guitar Intro 1x
Verse 3x
Chorus 2x
verse 3x
Bridge/outro 1x

Вверх


Deer Dance

Intro:

p.m......................
D--------------------------
A--------------------------
F-------------------------- x4
C--1-1-0--1-1-0--1-1-0--1--
G--1-1-0--1-1-0--1-1-0--1--
C--1-1-0--1-1-0--1-1-0--1--

p.m...............
D------------------
A------------------
F------------------
C--1-0-1-0-1-0-1-0- x2
G--1-0-1-0-1-0-1-0-
C--1-0-1-0-1-0-1-0-

p.m.............
D-----------------
A-----------------
F-----------------
C--1-0-1-0-1-0-1-- x2
G--1-0-1-0-1-0-1--
C--1-0-1-0-1-0-1--

Verse:
(harm)
D------------------------------
A------------------------------
F------------------------------ x6
C----------------------(5.95)--
G------------------------------
C--5/95--3/73--1/51---------

Bridge:

p.m.............................................. (harm)
D--------------------------------------------------------
A--------------------------------------------------------
F--------------------------------------------------------
C--5/95--3/73--1/51--------5/95--3/73--1/51-(5.95)- x2
G----------------------5/95-----------------------------
C--------------------------------------------------------

Chorus:

p.m......................
D--------------------------
A--------------------------
F-------------------------- x4
C--1-1-0--1-1-0--1-1-0--1--
G--1-1-0--1-1-0--1-1-0--1--
C--1-1-0--1-1-0--1-1-0--1--

p.m...............
D------------------
A------------------
F------------------
C--1-0-1-0-1-0-1-0- x2
G--1-0-1-0-1-0-1-0-
C--1-0-1-0-1-0-1-0-

p.m.............
D-----------------
A-----------------
F-----------------
C--1-0-1-0-1-0-1-- x2
G--1-0-1-0-1-0-1--
C--1-0-1-0-1-0-1--


Verse

Bridge

Chorus

Middle:

There's lots of multitracked guitars in this section. This is the tab for
the main riff:

p.m.................
F--6-5-----8-6-5----
A------6---------6--
D--------7----------
C-------------------
G-------------------
C-------------------

Вверх


Forest

Intro
-----------------------------------------------------------------
-----------------------------------------------------------------
-----------------------------------------------------------------
---7-------------8-------------9------------10-------------------
---5-5555555555--6-6666666666--7-7777777777-8-8888888888---------
-----------------------------------------------------------------

Heavy (palm mute the second time)
4 times 4 times
--------------|------------------------
--------------|------------------------
--------------|------------------------
--------------|------------------------
--0---0-6-4---|----0---0-4-6-------------------
--0---0-6-4---|----0---0-4-6-------------------


Verse
-------------------------------------------------------------------------------
-------------------------------------------------------------------------------
-------------777--------------888--------------999-----------------101010------
--7------777------8-------888------9-------999-----10-------101010-------------
--5-5555----------6-6666-----------7-77777---------8--88888--------------------
-------------------------------------------------------------------------------

Вверх


Innervision

-----------------------------------------------
-----------------------------------------------
----------------------------------------------- X2
-2-2--7-7--5-5--3-3--5-5-5---------------------
-2-2--7-7--5-5--3-3--5-5-5---------------------
-2-2--7-7--5-5--3-3--5-5-5---------------------


-----------------------------------------------
-----------------------------------------------
----------------------------------------------- x2
-----------------------------------------------
-----------------------------------------------
-000--555--333--111--333-----------------------

Вверх


Jet Pilot

Tuning: Drop C (CGCFAD)

Part 1 (+ = Palm Muted)
D|-----------------------------------------|
A|-9----9----9----9----9----9----9-----9-9-|
F|-7----7----7----7----7----7----7-----7-7-|
C|-0000-0000-0000-0000-0000-0000-0000-0000-|
G|-0000-0000-0000-0000-0000-0000-0000-0000-|
C|-0000-0000-0000-0000-0000-0000-0000-0000-|
+++  +++  +++  +++  +++  +++  +++ + +

Part 2
D|-----------------------|
A|-----------------------|
F|-----------------------|
C|---3-2-1-0-1-0h1p0-----|
G|-0-----------------3-1-|
C|-----------------------|

Part 3A          Part 3B          Part 3C
D|--------------|-----------------|---|
A|--------------|-----------------|---|
F|--------------|-----------------|---|
C|-7-8-7-8-7--5-|-7-8-7-8-7-5-5-5-|-7-|
G|-7-8-7-8-7--5-|-7-8-7-8-7-5-5-5-|-7-|
C|-7-8-7-8-7--5-|-7-8-7-8-7-5-5-5-|-7-|


Part 4
D|---------------------------------------------------|
A|---------------------------------------------------|
F|---------------------------------------------------|
C|---3-5-7-8-7-10-8-12-10-14-12-14-12-10-8-12-10-8-7-|
G|-0-------------------------------------------------|
C|---------------------------------------------------|
<----Palm Muted---->

Вверх


Know

INTRO: (DRUMS)

RIFF 1

C |----------------------------------------------------------------------|
A |----------------------------------------------------------------------|
F |----------------------------------------------------------------------|
C |--0--7-0--0-0--7-7----------------------------------------------------|
G |--0--7-0--0-0--7-7----------------------------------------------------|
C |--0--7-0--0-0--7-7----------------------------------------------------|
. . . . . . . . .

RIFF 2 (00:19)

C |----------------------------------------------------------------------|
A |----------------------------------------------------------------------|
F |----------------------------------------------------------------------|
C |--0--7-0--0-0--3---------0--7--0-0-0---3------------------------------|
G |--0--7-0--0-0--3---------0--7--0-0-0---3------------------------------|
C |--0--7-0--0-0--3---------0--7--0-0-0---3------------------------------|
Crushed earth!!!!! Crushed earth!!!!

RIFF 3 (00:32)

C |---10-10-10-10-10-10-10-10-10-10-10-10-10-10-10-10-10-10-10-10--------|
A |----------------------------------------------------------------------|
F |----------------------------------------------------------------------|
C |----------------------------------------------------------------------|
G |----------------------------------------------------------------------|
C |----------------------------------------------------------------------|
PM

RIFF 4 (00:35)

C |----------------------------------------------------------------------|
A |----------------------------------------------------------------------|
F |----------------------------------------------------------------------|
C |--0--0--0--0--3--0-0-0-0--3--------------------------------------------|
G |--0--0--0--0--3--0-0-0-0--3--------------------------------------------|
C |--0--0--0--0--3--0-0-0-0--3--------------------------------------------|
PM . . . . . . . . .


RIFF 5 VERSE (00:42)

C |--------------------------------------------|
A |--------------------------------------------|
F |--------------------------------------------|
C |--------------------------------------------|
G |--------------------------------------------|
C |--0-0-0-0-0-3--0-0-0-0-0--3-----------------|
PM . . . . . . . .

I will never feed off the evergreen luster of your heart all


RIFF 6 CHORUS (00:56)

|--------------------------|
|--------------------------|
|--------------------------|
|--0-0--3--0-0--3----------|
|--0-0--3--0-0--3----------|
|--0-0--3--0-0--3----------|

You never think you know why!!!!!,
Know, You never think you know why!!!!

RIFF 7 (1:43)

C |----------------------------------------------------------------------|
A |----------------------------------------------------------------------|
F |----------------------------------------------------------------------|
C |--0--0--0--0--0--0----------------------------------------------------|
G |--0--0--0--0--0--0----------------------------------------------------|
C |--0--0--0--0--0--0----------------------------------------------------|


RIFF 8 (1:52)
C |----------------------------------------------------------------------|
A |----------------------------------------------------------------------|
F |-----------------------------------------9~---------------------------|
C |-----------------------------------------9~---------------------------|
G |-----------------------------------------7~---------------------------|
C |--0-~~~~~~-------3-3-~~~~~----0---~~~~--------------------------------|

RIFF 9 (2:17) (2:29)
C |------------------------------------|----------------------------------|
A |------------------------------------|----------------------------------|
F |------------------------------------|----------------------------------|
C |------------------------------------|-0-0-0-0-0-3-3-3-3-3--0-0-0-0-0---|
G |------------------------------------|-0-0-0-0-0-3-3-3-3-3--0-0-0-0-0---|
C |--0-0-0-0-0-0--3-3-3-3-3--0-0-0-0-0-|-0-0-0-0-0-3-3-3-3-3--0-0-0-0-0---|

ORDER

INTRO
RIFF 1 4X
RIFF 2 4X
RIFF 3
RIFF 4 4X
RIFF 5 VERSE (MANY TIMES)
RIFF 6 CHORUS 4X
RIFF 4 4X
RIFF 5 VERSE (MANY TIMES)
RIFF 6 CHORUS 4X
RIFF 7 (MANY TIMES)
RIFF 8 MANY TIMES
RIFF 9 MANY TIMES
RIFF 6 CHORUS 4X

END

Вверх


Needles

INTRO: (not positive on this)
|-6p5p0-6p5p0-6p5p0-6p5p0-6-0-6-0-6-5/6-6-0-6-0-6p5p0-6p5p0-6p0-6p0-6p0|
|----------------------------------------------------------------------|
|----------------------------------------------------------------------|
|----------------------------------------------------------------------|
|----------------------------------------------------------------------|
|----------------------------------------------------------------------|
PM . . . . . . . . .

BRIDGE: (slight variations on this throughout song)
|-------------------------------------------------------------------|
|-------------------------------------------------------------------|
|-------------------------------------------------------------------|
|-0-6-6-6-6-6-6-6-6-6-6-6-6-6-6-6-6---------------------------------|
|-0-6-6-6-6-6-6-6-6-6-6-6-6-6-6-6-6-660-660-660-660-660-660-660-660-|
|-0-6-6-6-6-6-6-6-6-6-6-6-6-6-6-6-6-660-660-660-660-660-660-660-660-|
PM ... ... ... ... ... ... ... ...

|---------------------------------|
|---------------------------------|
|---------------------------------|
|---------------------------------|
|-660-660-660-660-660-660-660-660-|
|-660-660-660-660-660-660-660-660-|
PM... ... ... ... ... ... ... ...

VERSE:
|----------------------------------------|
|----------------------------------------|
|----------------------------------------|
|----------------------------------------|
|-5-6--5-6--5-6--5-6--5-6--5-6--5-6--5-6-|
|-5-6--5-6--5-6--5-6--5-6--5-6--5-6--5-6-|

PRECHORUS:
|-----------------------------------------------------|
|-----------------------------------------------------|
|-----------------------------------------------------|
|-5-138-138-1-138-138-6-138-6-138-6-138-6-138-|
|-5-138-138-1-138-138-6-138-6-138-6-138-6-138-|
|-5-138-138-1-138-138-6-138-6-138-6-138-6-138-|

CHORUS:
|---------------------------------|
|---------------------------------|
|---------------------------------|
|-5-5-5-5-3-3-3-3-6-6-6-6-5-5-5-5-|
|-5-5-5-5-3-3-3-3-6-6-6-6-5-5-5-5-|
|-5-5-5-5-3-3-3-3-6-6-6-6-5-5-5-5-|

CHORUS FILL:
|---------------------------|
|---------------------------|
|---------------------------|
|-5-5-5-5-3-3-3-3-6-6-6-6-5-|
|-5-5-5-5-3-3-3-3-6-6-6-6-5-|
|-5-5-5-5-3-3-3-3-6-6-6-6-5-|

INTERLUDE:
|-------------------------------------------------|
|---4p3---4p3---------------3p2---3p2-------------|
|-------------------------------------------------|
|-5-----5-------5-4---5-4-4-----4-------5-4---5-4-|
|-------------6-----6-----------------5-----5-----|
|-------------------------------------------------|
PM.................................................

OUTRO: (palm mute)
|---------------------------------|
|---------------------------------|
|---------------------------------|
|---------------------------------|
|-5-5-6-6-8-8-6-6-5-5-3-3-6-6-5-5-|
|-5-5-6-6-8-8-6-6-5-5-3-3-6-6-5-5-|

Вверх


Prison Song

Tuning (low to high): C-G-C-F-A-D
v = Vibrato - The string is vibrated by rapdily bending and
releasing the note with the fretting hand

D|--------------------------------------|
A|--------------------------------------|
F|--------------------------------------|
C|------------------------------3-3-3-3-|
G|-0--1-3-1-0-1-3-1-0-1-3-1-0-1-1-1-1-1-|
C|-0--1-3-1-0-1-3-1-0-1-3-1-0-1---------|

D|---------------------------------|
A|---------------------------------|
F|---------------------------------|
C|-------------------------3-3-3-3-|
G|-0-1-3-1-0-1-3-1-0-1-3-1-1-1-1-1-|
C|-0-1-3-1-0-1-3-1-0-1-3-1---------|

D|---------------------------------------------------------|
A|---------------------------------------------------------|
F|---------------------------------------------------------|
C|-------------------------------------------------3-3-3-3-|
G|-0-1-0-1-0-1-0-0-1-0-1-0-1-0-0-1-0-1-0-1-0-0-1---1-1-1-1-|
C|-0-1-0-1-0-1-0-0-1-0-1-0-1-0-0-1-0-1-0-1-0-0-1-0---------|

D|--------------------------------------|
A|--------------------------------------|
F|--------------------------------------|
C|------------------------------3-3-3-3-|
G|-0--1-3-1-0-1-3-1-0-1-3-1-0-1-1-1-1-1-|
C|-0--1-3-1-0-1-3-1-0-1-3-1-0-1---------|

D|---------------------------| |---------------------|
A|---------------------------| |---------------------|
F|---------------------------| |---------------------|
C|----8--------8--------8----| x3 then... |----8-----8-----8----|
G|-6-----6--6-----6--6-----6-| |-6-----6-----6-----6-|
C|---------------------------| |---------------------|

D|---------------------------------------------------------------|
A|----------3--------3-----2--------3-----3----------------------|
F|-------------3--------------2-----3--3-----3--------------2----|
C|-------3--------3--------------2--3-----------3--------2-----2-|
G|-0-1-0-1--------------0-----------1--------------1--0----------|
C|-0-1-0---------------------------------------------------------|

D|------------------------------------------------------|
A|------------------------------------------------------|
F|------------------------------------------------------|
C|----------------------------------------------3-3-3-3-|
G|----------------------------------------------1-1-1-1-|
C|-0--0--0--0--0--0--0--0--0--0--0--0--0--0--0----------|

D|-------------------------------------------------|
A|-------------------------------------------------|
F|-------------------------------------------------|
C|----------------------------------3-3-3-3------3-|
G|-0--0--0--0--0--0--0--0--0--0--0--1-1-1-1------1-|
C|-0--0--0--0--0--0--0--0--0--0--0-----------------|

D|-------------------------1v-|
A|-3--------3-----2--------3v-|
F|----3--------------2-----2v-|
C|-------3--------------2--0v-|
G|-------------0--------------|
C|----------------------------|

Вверх


Shimmy

------------------------------------------------------------------------------
------------------------------------------------------------------------------
------------------------------------------------------------------------------
-3-2-0-2-3-2-0-2--------------------------------------------------------------
-3-2-0-2-3-2-0-2--------------------------------------------------------------
-3-2-0-2-3-2-0-2--------------------------------------------------------------
intro

----------|-------------------------------------------------------------------
----------|-------------------------------------------------------------------
----------|-------------------------------------------------------------------
--3-2-2-2-|-7-6-6-6-----------------------------------------------------------
--3-2-2-2-|-7-6-6-6-----------------------------------------------------------
--3-2-2-2-|-7-6-6-6-----------------------------------------------------------
then

-----------------|---------|--------------------------------------------------
-----------------|---------|--------------------------------------------------
-----------------|---------|--------------------------------------------------
-----------------|---------|--------------------------------------------------
-----------------|---------|-7-8-7-5-3-2-0------------------------------------
-3-2-0-2-3-2-0-2-|-3-2-0-2-|---------------6----------------------------------
fisrt and third times

------------------------------------------------------------------------------
------------------------------------------------------------------------------
------------------------------------------------------------------------------
-----6-7-6h7p6----------------------------------------------------------------
-7-8-----------8-7-5----------------------------------------------------------
------------------------------------------------------------------------------
second time

------------------------------------------------------------------------------
------------------------------------------------------------------------------
------------------------------------------------------------------------------
-----6-7-6h7p6----------------------------------------------------------------
-7-8-----------8-7-5-7-5-3-2-3-2-0--------------------------------------------
-----------------------------------6------------------------------------------
last time

-----|------------------------------------------------------------------------
-----|------------------------------------------------------------------------
-----|------------------------------------------------------------------------
-2---|-6----------------------------------------------------------------------
-2---|-6----------------------------------------------------------------------
-2---|-6----------------------------------------------------------------------
chorus

------------------------------------------------------------------------------
------------------------------------------------------------------------------
------------------------------------------------------------------------------
-0----------------------------------------------------------------------------
-0----------------------------------------------------------------------------
-0----------------------------------------------------------------------------
indoctaination of...

------------------------------------------------------------------------------
------------------------------------------------------------------------------
------------------------------------------------------------------------------
------------------------------------------------------------------------------
-7-8-7-5-3-2-0----------------------------------------------------------------
---------------6--------------------------------------------------------------
then before outro repeat this

Вверх


Spiders

Tuning- C G C F A D

IntroVerse

|------------------------|
|------------------------|
|------------------------|
|------------------------|
|---7---7----5---5---5-5-|
|-0---0---0----0---0-----| x2

|----------------------------|
|----------------------------|
|----------------------------|
|----------------------------|
|---8---7---10---8---7---7h8-|
|-0---0---0----0---0---0-----|

|------------------------|
|------------------------|
|------------------------|
|------------------------|
|---7---7----5---5---5-5-|
|-0---0---0----0---0-----|

Chorus

Distortion
|------------------------------------------------------|
|------------------------------------------------------|
|------------------------------------------------------|
|-10--10--10-10-10--10--10-10-10--10--10-10-10--10--10-|
|-10--10--10-10-10--10--10-10-10--10--10-10-10--10--10-|
|-10--10--10-10-10--10--10-10-10--10--10-10-10--10--10-|

|----------------------------|
|----------------------------|
|----------------------------|
|----------------------------|
|---8---7---10---8---7---7h8-|
|-0---0---0----0---0---0-----|

|------------------------|
|------------------------|
|------------------------|
|------------------------|
|---7---7----5---5---5-5-|
|-0---0---0----0---0-----|

|-------------------------------------------------|
|-------------------------------------------------|
|-------------------------------------------------|
|-10--10--10-10-10--10--10-10/8--8--8-8/7--7--7-7-|
|-10--10--10-10-10--10--10-10/8--8--8-8/7--7--7-7-|
|-10--10--10-10-10--10--10-10/8--8--8-8/7--7--7-7-|

Verse 2- Same as verse 1

Chorus 2- Same as chorus 1

|-----------|
|-----------|
|-14-15-/18-|
|--x--x-/-x-|
|-12-13-/16-|
|-----------| x2
~~Tremelo~~

|-------------------------------------------------|
|-------------------------------------------------|
|-19----19----19----19----19----19----19----19----|
|-------------------------------------------------|
|----17----17----17----17----17----17----17----17-|
|-------------------------------------------------|

|---------------------------------------------------|
|---------------------------------------------------|
|-/20----20----20----20----/18----18----18----18----|
|---------------------------------------------------|
|----/18----18----18----18----/16----16----16----16-|
|---------------------------------------------------| x2

Interlude

|------------------------------------------------------|
|------------------------------------------------------|
|------------------------------------------------------|
|-10--10--10-10-10--10--10-10-10--10--10-10-10--10--10-|
|-10--10--10-10-10--10--10-10-10--10--10-10-10--10--10-|
|-10--10--10-10-10--10--10-10-10--10--10-10-10--10--10-|

|-------------------------------------------------------|
|-------------------------------------------------------|
|-------------------------------------------------------|
|-------------------------------------------------------|
|---12---10---13---12---10---12---10---12---8---8---8-8-|
|-0----0----0----0----0----0----0----0----0---0---0-----|

|-------------------------------------------------|
|-------------------------------------------------|
|-------------------------------------------------|
|-10--10--10-10-10--10--10-10/8--8--8-8/7--7--7-7-|
|-10--10--10-10-10--10--10-10/8--8--8-8/7--7--7-7-|
|-10--10--10-10-10--10--10-10/8--8--8-8/7--7--7-7-|

|-------------------------------------------------------|
|-------------------------------------------------------|
|-------------------------------------------------------|
|-------------------------------------------------------|
|---12---10---13---12---10---12---10---12---8---8---8-8-|
|-0----0----0----0----0----0----0----0----0---0---0-----| x2

Outro

|------------------------|
|------------------------|
|------------------------|
|------------------------|
|---7---7----5---5---5-5-|
|-0---0---0----0---0-----| x4

|----------------------------|
|----------------------------|
|----------------------------|
|----------------------------|
|---8---7---10---8---7---7h8-|
|-0---0---0----0---0---0-----|

|------------------------|
|------------------------|
|------------------------|
|------------------------|
|---7---7----5---5---5-5-|
|-0---0---0----0---0-----| x2

Вверх


Sugar

tune down 1 step and drop d
C.G,C,F

------------------------------------------------------------------------------
------------------------------------------------------------------------------
------------------------------------------------------------------------------
------------------------------------------------------------------------------
------------------------------------------------------------------------------
--12-11-10-10-8--------------------------------------------------------------

repeat this next part over and over and over
------------------------------------------------------------------------------
------------------------------------------------------------------------------
------------------------------------------------------------------------------
------------------------------------------------------------------------------
------------------------------------------------------------------------------
--0-7-6-5---------------------------------------------------------------------

gradually speed up to a frenzy
------------------------------------------------------------------------------
------------------------------------------------------------------------------
------------------------------------------------------------------------------
------------------------------------------------------------------------------
------------------------------------------------------------------------------
-1--12--1-0-1-0--12-0-0-1-----------------------------------------------------

Вверх