Sum 41


Fat Lip



Handle This



Heart Attack



In to Deep



Motivation



Nothing on my Back



Pain For Pleasure



Still Waiting



Summer



What Were All About


Вверх


Fat Lip

Intro
e|--------------------------|--------------------------|
B|--------------------------|--------------------------|
G|--------------------------|--------------------------|
D|---------6-----------4----|---------6-----------6-4--|
A|--------------------------|--------------------------|
E|--4-5-7-------4-5-7-------|--4-5-7-------4-5-7-------|

Verse 1st Part 2x
e|-------------------------|---------------------------|
B|-------------------------|---------------------------|
G|-------------------------|---------------------------|
D|----------2-1-2----------|--------2-1-2--------------|
A|------------------2-2----|--0-0----------0-----------|
E|--0-0--------------------|------------------4--2--0--|

Verse 2nd Part (palm muted)
E5 C#5 A5 2x
e|----------------------------------|
B|----------------------------------|
G|--9-9-9-9-9-9-9-9-6-6-6-6---------|
D|--9-9-9-9-9-9-9-9-6-6-6-6-7-7-7-7-|
A|--7-7-7-7-7-7-7-7-4-4-4-4-7-7-7-7-|
E|--------------------------5-5-5-5-|

Chorus
E5 B5 C#5 G#5 A5 G#5 A5
e|---------------------------|
B|---------------------------|
G|--9-----6-6----------------|
D|--9--9--6-6--6---7--6---7--|
A|--7--9--4-4--6---7--6---7--|
E|-----7-------4---5--4---5--|

Chorus (Guitar 2 Optional)
E F# G# G#5 A5 G#5 A5
e|---------------------------|
B|---------------------------|
G|--9--11--13----------------|
D|-------------6---7--6---7--|
A|--7--9---11--6---7--6---7--|
E|-------------4---4--4---5--|

Breakdown
E5 A5
e|------------------------------|
B|------------------------------|
G|------------------------------|
D|--2-2--2-2--2-2--2-2--2-2--7--|
A|--2-2--2-2--2-2--2-2--2-2--7--|
E|--0-0--0-0--0-0--0-0--0-0--5--|

Bridge Part 1 Clean
E C#m A5 4x
e|-------------------|--------------------|
B|-------------------|------5-------------|
G|------9------------|--------6-----------|
D|----9---9-----9----|----6-----------7---|
A|--7---------7---7--|--4-----------7-----|
E|----------7--------|------------5-------|

Bridge Part 1 Clean (Guitar 2 optional, play after the guitar 1 plays bridge 2x)
E C#m A5 2x
e|--------------------|--------------------|
B|--------------------|--------------------|
G|--9---9---8---8-----|--6---6-------------|
D|----9---9---9---9---|----9---9----6-7-9--|
A|--------------------|--------------------|
E|--------------------|--------------------|

Bridge Part 2 Distorted

G#5 A5 E5 G#5 A5 A5
e|----------------------------|
B|----------------------------|
G|----------9-----------------|
D|---6---7--9----6---7--7-----|
A|---6---7--7----6---7--7-----|
E|---4---5-------4---5--5-----|

A5 (Palm mute and build back to the chorus then into intro)
e|---------------------------|
B|---------------------------|
G|---------------------------|
D|-7-7-7-7-7-7-7-7-7-7-7-7-7-|
A|-7-7-7-7-7-7-7-7-7-7-7-7-7-|
E|-5-5-5-5-5-5-5-5-5-5-5-5-5-|

Вверх


Handle This

Intro A (Guitar 1)
e-----------------------------------------------------------
B-----------------------------------------------------------
G-----------------------------------------------------------
D--0-0---7-7---5-5--x-x-x-x--5-5--x-x-x-x-------------------
A--0-0---7-7---5-5--x-x-x-x--5-5--x-x-x-x-------------------
D--0-0---7-7---5-5--x-x-x-x--5-5--x-x-x-x-------------------

Intro B (Guitar 2) end on
e-----------------------------------------------------|-----
B-----------------------------------------------------|-----
G--11-12-14--11-12-11-9-97--7--7--7--7--7--11-12-11--|--7--
D---x--x--x---x--x--x-x-x----x--x--x--x--x---x--x--x--|--x--
A---9-10-12---9-10--9-7-75--5--5--5--5--5---9-10--9--|--5--
D-----------------------------------------------------|-----

Verse 1 (each hit 8 times)
e-----------------------------------------------------------
B-----------------------------------------------------------
G--7m--7m---------------------------------------------------
D--7m--7m---7m--7m---9m--9m---5--5--------------------------
A--5m--5m---7m--7m---9m--9m---5--5--------------------------
D-----------7m--7m---9m--9m---5--5--------------------------
("You say in doubt...")

Chorus (each hit 4 times)
e-----------------------------------------------------------
B-----------------------------------------------------------
G----------7---------------7--------------------------------
D--9---5---7---7---2---5---7---7---2---5--------------------
A--9---5---5---7---2---5---5---7---2---5--------------------
D--9---5-------7---2---5-------7---2---5--------------------
("Cause I will bring you down...")

Verse 2A (Guitar 1, each hit 4 times)
e-----------------------------------------------------------
B-----------------------------------------------------------
G-------------------------------------7--9--11--9-----------
D--7m-7m-7m-7m--9m-9m-9m-9m--5-5-5-5--x--x---x--x-----------
A--7m-7m-7m-7m--9m-9m-9m-9m--5-5-5-5--5--7---9--7-----------
D--7m-7m-7m-7m--9m-9m-9m-9m--5-5-5-5------------------------

(continued; end on)
e-----------------------------------------------------------
B-----------------------------------------------------------
G-----------11--12--11--9-----------------------------------
D--5-5-5-5---x---x---x--x-----------------------------------
A--5-5-5-5---9--10---9--7-----------------------------------
D--5-5-5-5--------------------------------------------------

Verse 2B (Guitar 2)
e-----------------------------------------------------------
B-----------------------------------------------------------
G---------------6-7---------------6-7-----------------------
D--7m-7m-7m-7m-------7m-7m-7m-7m----------------------------
A-----------------------------------------------------------
D-----------------------------------------------------------

Solo
e-------10-12-10--14--14/1514--10------10h12p10h12--14----
B--7/8-------------------------------12---------------------
G-----------------------------------------------------------
D-----------------------------------------------------------
A-----------------------------------------------------------
D-----------------------------------------------------------

(continued)
e--14/1514--10--------------------------------------------
B-----------------12-10-----------10-10-------10-10--10-12--
G-----------------------12-11-12--------11-12---------------
D-----------------------------------------------------------
A-----------------------------------------------------------
D-----------------------------------------------------------

(continued)
e------------------------------------------14---------------
B-10------------------------------15----------------15------
G-----12-11-9--12-11--------14-14----14-14----14-14----14---
D--------------------12-12----------------------------------
A-----------------------------------------------------------
D-----------------------------------------------------------

(continued)
e-------12p10-----12p10-----12p10----12p10----12p10---------
B-------------10--------10--------10-------10-------10^-----
G--14-------------------------------------------------------
D-----------------------------------------------------------
A-----------------------------------------------------------
D-----------------------------------------------------------

Riff A (Guitar 1) Riff B (Guitar 2)
e---------------------------------------|-------------------
B---------------------------------------|-------7h8-/10----
G-----------7-7--7h9-/11---7-7--7h9-/11-|--7-7--------------
D--5--------7-7------------7-7----------|--7-7--------------
A--5-(x16)--5-5------------5-5----------|--5-5--------------
D--5------------------------------------|-------------------

Bridge (each hit 4 times)
e-----------------------------------------------------------
B-----------------------------------------------------------
G-----------------------------------------------------------
D--x---7--7---2--2---5--5---5m--5m--5--5--------------------
A--x---7--7---2--2---5--5---5m--5m--5--5--------------------
D--x---7--7---2--2---5--5---5m--5m--5--5--------------------
("And it's true what you're going through...")

Outro A (Guitar 1)
e-----------------------------------------------------------
B-----------------------------------------------------------
G--7---------------------------------7-7-7------------------
D--7-(x16)--7--------5-5--x-5-5-5-5--7-7-7--7--7-7-7--------
A--5--------7-(x16)--5-5--x-5-5-5-5--5-5-5--7--7-7-7--------
D-----------7--------5-5--x-5-5-5-5---------7--7-7-7--------

Outro B (Guitar 2) end on
e------------------------------------|----------------------
B------------------------------------|----------------------
G--9-11-9-11--9-11-9-11--12-14-12-11-|-9-11-7-12-12-11-11-9-
D--x--x-x--x--x--x-x--x---x--x--x--x-|-x--x-x--x--x--x--x-x-
A--7--9-7--9--7--9-7--9--10-12-10--9-|-7--9-5-10-10--9--9-7-
D------------------------------------|----------------------

Intro A, B
Verse 1
Chorus
Intro A, B
Verse 2
Chorus
Chorus, Solo
Riff A
Riff A, B
Bridge
Chorus
Outro A
Outro A, B

Вверх


Heart Attack

Intro / Verse (2X for Intro, 2X for Verse)
e|--------2-------------------2-------------------2-----------------2----------
B|----2-------2---2-------2-------2---2-------2-------2---2-----2-------2---2--
G|-----------------------------------------------------------------------------
D|--4---4---4---4-------3---3---3---3-------1---1---1---1-----1---1---1---1----
A|-----------------------------------------------------------------------------
E|-----------------------------------------------------------------------------

Verse (Play 2X) (Guitar 1 plays intro, Guitar 2 plays the following)
Early morning, made by warnings, What’s the point of the alarm that I’m ignoring
It’s either raining, I’m not complaining, but waking up is hard to do so
e|-----------------------------------------------------------------------------
B|-----------------------------------------------------------------------------
G|---x-x-11—-x-x-11--x-x-10--x-x-10--x-x-8--x-x-8--x-x-8--x-x-8----------------
D|---x-x-11—-x-x-11--x-x-10--x-x-10--x-x-8--x-x-8--x-x-8--x-x-8----------------
A|---x-x-9---x-x-9---x-x-8---x-x-8---x-x-6--x-x-6--x-x-6--x-x-6----------------
E|-----------------------------------------------------------------------------

Chorus (X4)
Turn your head it’s back to bed with no delay………
e|-----------------------------------------------------------------------------
B|-----------------------------------------------------------------------------
G|-----------6-6--4-4----------------------------------------------------------
D|--4-4-4-4--6-6--4-4----------------------------------------------------------
A|--4-4-4-4--4-4--2-2----------------------------------------------------------
E|--2-2-2-2--------------------------------------------------------------------

After Chorus Part
e|------------------------------------------------------------------------------
B|------------------------------------------------------------------------------
G|--11--11--11--11---10--10--10--10---8--8--8--8--------------------------------
D|--11--11--11--11---10--10--10--10---8--8--8--8--------------------------------
A|--9---9---9---9----8---8---8---8----6--6--6—-6--------------------------------
E|--------------------------------------------------6h7—6h7---------------------

e|------------------------------------------------------------------------------
B|------------------------------------------------------------------------------
G|--11--11--11--11---10--10--10--10---8--8--8--8--------------------------------
D|--11--11--11--11---10--10--10--10---8--8--8--8--------------------------------
A|--9---9---9---9----8---8---8---8----6--6--6—-6--------------------------------
E|--------------------------------------------------6h7—6h7--9------------------

Intro (X2)

Verse (X2) (NO INTRO PART ON SECOND VERSE)

Chorus (X4)

Interlude (5X) (Palm Muted)
e|------------------------------------------------------------------------------
B|------------------------------------------------------------------------------
G|--11-11----11-11----11-11----11-11----11-11-11-11-----------------------------
D|--11-11----11-11----11-11----11-11----11-11-11-11-----------------------------
A|--9--9-----9--9-----9--9-----9--9-----9--9--9--9------------------------------
E|------------------------------------------------------------------------------

Intro (5X)

Intro & Verse (2X)


Chorus

Last Part (2X, then 2 times again along with Interlude)
e|------------------------------------------------------------------------------
B|------------------------------------------------------------------------------
G|--11-11----9-9----11-11----9-9------------------------------------------------
D|--11-11----9-9----11-11----9-9------8h9—8h6-----------------------------------
A|--9--9-----7-7----9--9-----7-7------------------------------------------------
E|------------------------------------------------------------------------------

End on
e|-----------------------
B|-----------------------
G|-11--------------------
D|-11---let ring…--------
A|-9---------------------
E|-----------------------

Вверх


In to Deep

Intro A (Guitar 1, palm muted)
e-----------------------------------------------------------
B-----------------------------------------------------------
G-----------1-2-2--4-2------------------1-------------------
D----2----------------------------1-2-4---------------------
A------------------------0-0-0--0---------------------------
E--0-----0--------------------------------------------------
(The faster we're falling...)

Intro B (Guitar 2, palm muted) end on:(1st) (2nd)
e----------------4---------------|-----------|--------------
B------------5-------------------|-----------|--------------
G--4-4-4--4----4---4---4-4-4--4--|--2-1-2-4--|--2-1---------
D--------------------------------|-----------|------4-2-----
A--------------------------------|-----------|--------------
E--------------------------------|-----------|--------------

Riff 1 (Guitar 1)
e--4---4-4----0---0-0----4---4-4----------------------------
B--5---5-5----2---2-2----5---5-5----------------------------
G--4---4-4----2---2-2----4---4-4----------------------------
D----------------------------------7m-7m-7m-7m-7-7-7-7------
A----------------------------------7m-7m-7m-7m-7-7-7-7------
E----------------------------------5m-5m-5m-5m-5-5-5-5------
(Maybe we're just trying too hard...)

Chorus Fill 1
e----------------------|------------------------------------
B----------------------|------------------------------------
G----------------------|--9-9-9-9--7-7-7-7------------------
D--2-2-2-2--7-7-7-7----|--9-9-9-9--7-7-7-7--7-7-7-7--x------
A--2-2-2-2--7-7-7-7----|--7-7-7-7--5-5-5-5--7-7-7-7--x-(x8)-
E--0-0-0-0--5-5-5-5----|--------------------5-5-5-5--x------

Post-Chorus A (Guitar 1) B (Guitar 2) Fill 2
e------------------------|----------------------|-----------
B------------------------|----------------------|-----------
G-------9----------------|-------13-------------|-----------
D--2-2--x--7-7--6--7-----|--2-2---x--7-7--6--7--|--7-6-4-6--
A--2-2--7--7-7--6--7-----|--2-2--11--7-7--6--7--|--7-6-4-6--
E--0-0-----5-5--4--5-----|--0-0------5-5--4--5--|--5-4-2-4--
-
Verse 1 end on
e--------------------------------------|--------------------
B--------------------------------------|--------------------
G--------------------------------------|--------------------
D--2-2--6-7-7--7--2-2--6-7-7--6-7-7--7-|-2-2m------7-7m-----
A--2-2--6-7-7--7--2-2--6-7-7--6-7-7--7-|-2-2m-(x7)-7-7m-(x7)
E--0-0--4-5-5--5--0-0--4-5-5--4-5-5--5-|-0-0m------5-5m-----
(Seems like each time...)

Riff 2
e-----------------------------------------------------------
B-----------------------------------------------------------
G--------9--------9--------9--------------------------------
D--2-2-2-x--2-2-2-x--2-2-2-x--2-2-2--x-x-x-x-x-x------------
A--2-2-2-7--2-2-2-7--2-2-2-7--2-2-2--x-x-x-x-x-x------------
E--0-0-0----0-0-0----0-0-0----0-0-0--x-x-x-x-x-x------------

Solo A (Guitar 1)
e-----------------------------------------------------------
B-----------------------------------------------------------
G------------------------7-7-7-7-7--------------------------
D--2-2-2-2-2--4-4-4-4-4--7-7-7-7-7--7-7-7-7-7--6------------
A--2-2-2-2-2--4-4-4-4-4--5-5-5-5-5--7-7-7-7-7--6------------
E--0-0-0-0-0--2-2-2-2-2-------------5-5-5-5-5--4------------

Solo B (Guitar 2)
e--5p4p0--5p4p0--7p5p0--7p5p0-------------0h4--0h5--0h7-----
B------------------------------4h5p4h5/7--------------------
G-----------------------------------------------------------
D-----------------------------------------------------------
A-----------------------------------------------------------
E-----------------------------------------------------------

(continued) end on: 1st 2nd
e--0h5--0h4--0h5--|--0h2--0h4--|--0--12/1412---------------
B-----------------|------------|----------------------------
G-----------------|------------|----------------------------
D-----------------|------------|----------------------------
A-----------------|------------|----------------------------
E-----------------|------------|----------------------------

Verse 2A (Guitar 1) 2B (Guitar 2)
e----------------------|------------------------------------
B----------------------|--4/5-(x8)--------------------------
G----------------------|------------------------------------
D--2-2--4-4--7-7--9-9--|------------4/6-(x8)----------------
A--2-2--4-4--7-7--9-9--|------------------------------------
E--0-0--2-2--5-5--7-7--|------------------------------------
(I can't sit back and wonder why...)

Outro A (Guitar 1, each hit 4 times)
e-----------------------------------------------------------
B-----------------------------------------------------------
G--9---7-----------9---7------------------------------------
D--9---7---7---7---9---7---7---10---------------------------
A--7---5---7---7---7---5---7---10---------------------------
E----------5---5-----------5----8---------------------------

Outro B (Guitar 2) end on
e--0--0-0--0--0--0-0--0--0--0-0--0-0-0-0-0--|--0------------
B--9-10-9-10-12-10-9-10--9-10-9-10-9-7-5-7--|--5------------
G-------------------------------------------|---------------
D-------------------------------------------|---------------
A-------------------------------------------|---------------
E-------------------------------------------|---------------

Intro A, B
Riff 1, Intro B
Chorus (end on Fill 1)
Post-Chorus A
Post-Chorus A, B (end on Fill 2)
Verse 1
Chorus (end on Fill 1)
Riff 2
Verse 2A
Verse 2A, 2B
Post-Chorus A, B
Outro A, B

Вверх


Motivation

Intro
e------------------------------------------------------------
B------------------------------------------------------------
G------------------------------------------------------------
D--2-2---2-2---2-2---2-2---7--------------------------------
A--2-2---2-2---2-2---2-2---7--------------------------------
E--0-0---0-0---0-0---0-0---5--------------------------------

Riff 1 end on
e-------------------|----------------------------------------
B-------------------|----------------------------------------
G-------------------|----------------------------------------
D--2-2-2--6-7--7-6--|--9-9-9--6-7--7-6-----------------------
A--2-2-2--6-7--7-6--|--9-9-9--6-7--7-6-----------------------
E--0-0-0--4-5--5-4--|--7-7-7--4-5--5-4-----------------------

Verse end on
e--------------------------------------|---------------------
B--------------------------------------|---------------------
G--------------------------------------|---------------------
D--------2--------6--------7--------9--|---------------------
A--------2--------6--------7--------9--|-4-4-6-6-7-7-9-9-----
E--0m-0m-0--4m-4m-4--5m-5m-5--7m-7m-7--|---------------------
("What's the difference...")

Chorus
e------------------------------------------------------------
B------------------------------------------------------------
G--9--9--9--9-9-9--9--9--9-9---------------------------------
D--9--9--9--9-9-9--9--9--9-9-9--9--9--9-9-9--9--9--9-9-------
A--7--7--7--7-7-7--7--7--7-7-9--9--9--9-9-9--9--9--9-9-------
E----------------------------7--7--7--7-7-7--7--7--7-7-------
("Motivation such an aggrevation...")

(continued)
e------------------------------------------------------------
B------------------------------------------------------------
G--9--9--9--9-9-9--9--9--9-9---------------------------------
D--9--9--9--9-9-9--9--9--9-9-7--7--7--7-7-9--9--9--9-9--7--9-
A--7--7--7--7-7-7--7--7--7-7-7--7--7--7-7-9--9--9--9-9--7--9-
E----------------------------5--5--5--5-5-7--7--7--7-7--5--7-

Post-Chorus end on
e------------------------------------|-----------------------
B------------------------------------|-----------------------
G------------------------------------|-----------------------
D--2--2-2--9-9-9-9--7-7-7-7-7-7-7-7--|--4-------7------------
A--2--2-2--9-9-9-9--7-7-7-7-7-7-7-7--|--4-(x8)--7-(x8)-------
E--0--0-0--7-7-7-7--5-5-5-5-5-5-5-5--|--2-------5------------
("Nothing's new...")

Riff 2
e------------------------------------------------------------
B------------------------------------------------------------
G------------------------------------------------------------
D--2-2---------------7--7-7---9--9-9-------------------------
A--2-2--5-4-2-0------7--7-7---9--9-9-------------------------
E--0-0----------4-0--5--5-5---7--7-7-------------------------

Bridge A (Guitar 1)
e------------------------------------------------------------
B------------------------------------------------------------
G--6-------9----9--9--6--------------------------------------
D--6----9--9----9--9--6---7---9---9--9-9-9-9--2-2------------
A--4----9--7----7--7--4---7---9---9--9-9-9-9--2-2------------
E-------7-----------------5---7---7--7-7-7-7--0-0------------
("Can't pretend on doubt...")

Bridge B (Guitar 2)
e------------------------------------------------------------
B--4--5^------4--5^------4--5^--------4--5^------------------
G------------------------------------------------------------
D------------------------------------------------------------
A------------------------------------------------------------
E------------------------------------------------------------

Riff 3A (Guitar 1) 3B (Guitar 2, palm muted)
e------------------------|-----------------------------------
B------------------------|--5--5--5--5-4--5--5--5--5-4--5-4--
G-------4-4--------------|-----------------------------------
D--2-2--4-4--4-4--7-7----|-----------------------------------
A--2-2--2-2--4-4--7-7----|-----------------------------------
E--0-0-------2-2--5-5----|-----------------------------------

Riff 4 (Guitar 1) end on
e---------------------|--------------------------------------
B---------------------|--------------------------------------
G-----4-4-------------|--------------------------------------
D--2--4-4--4-4--7-7---|--7-7-7-7-7-7-7-7--9-9-9-9-9-9-9-9----
A--2--2-2--4-4--7-7---|--7-7-7-7-7-7-7-7--9-9-9-9-9-9-9-9----
E--0-------2-2--5-5---|--5-5-5-5-5-5-5-5--7-7-7-7-7-7-7-7----

Intro
Riff 1
Verse
Chorus
Intro
Verse
Chorus
Post-Chorus
Riff 2
Bridge A, B
Riff 3A
Riff 3A, 3B
Riff 4, Riff 3B (not palm muted)
Riff 1

Вверх


Nothing on my Back

Intro

e{---------------------------------------------------------------------------}
B{---------------------------------------------------------------------------}
D{--------------7--------------------7-7-------------------------------------}
G{-------7------7----------5---------7-7-------------------------------------}
A(-------7------5----------5---------5-5-------------------------------------}
E{-------5-----------------3-------------------------------------------------}


Verse 1(guitar 1)

Was Happiness a fad...........................................
e{---------------------------------------------------------------------------)
B{---------------------------------------------------------------------------}
D(---------------------------------------------------------------------------}
G(-------7-7-7-7-7-7-7-7-7-7-7-7-7-------------------------------------------}
A{-------7-7-7-7-7-7-7-7-7-7-7-7-7-------------------------------------------}
E{-------5-5-5-5-5-5-5-5-5-5-5-5-5-------------------------------------------)

Play that for A While then (guitar2) plays this

e{---------------------------------------------------------------------------}
B{---------------------------------------------------------------------------}
D{---------------------------------------------------------------------------}
G{----4-4------6---7-7-------------------------------------------------------}
A{----4-4------6---7-7-------------------------------------------------------}
E{----2-2------4---5-5-------------------------------------------------------}

Or was it in the lost and found.........................
e{---------------------------------------------------------------------------}
B{---------------------------------------------------------------------------}
D{-------------------------------------7-7-----------------------------------}
G{----------5-5-5-----4-4--------------7-7-----------------------------------}
A{----------5-5-5-----4-4--------------5-5-----------------------------------}
E{----------3-3-3-----2-2----------------------------------------------------}

It might not be so bad..........................
e{---------------------------------------------------------------------------}
B{---------------------------------------------------------------------------}
D{-------------------------------------------------------- 7-7-7-7-7---------}
G{----7-7-7-7-7-7-7----4-4--6--7-7---7-7-7-7-7-7--5-5-5----7-7-7-7-7---2-----}
A{----7-7-7-7-7-7-7----4-4--6--7-7---7-7-7-7-7-7--5-5-5----5-5-5-5-5---2-----}
E{----5-5-5-5-5-5-5----2-2--4--5-5---5-5-5-5-5-5--3-3-3----------------0-----}

Chorus
With nothing on my back..........................
e{---------------------------------------------------------------------------}
B{---------------------------------------------------------------------------}
D{------------------------7--------------------------------------------------}
G{---------7-7-7-7--------7----5-5-5-------2-2-------------------------------}   X2
A{---------7-7-7-7--------5----5-5-5-------2-2-------------------------------}
E{---------5-5-5-5-------------3-3-3-------0-0-------------------------------}

After the chorus play the intro again

Verse 2

I might as well.........................
e{---------------------------------------------------------------------------}
B{---------------------------------------------------------------------------}
D{-------------------------------xx7-----------------------------------------}
G{----xx7---xx5------xx7---------xx7---X4---------------7---------2----------}
A{----xx7---xx5------xx7---------xx5--------------------7---------2----------}
E{----xx5---xx3------xx5--------------------------------5---------0----------}

Play Chorus again

Middle
e{--------------------------------------------------------------------------}
B{--------------------------------------------------------------------------}
D{-------9--------------------------7----------7----------9-----9---------9-}
G{-------9--------------------------7-----7----7----------9--------9--------}  X2
A{-------7--------------------------5-----7----5----------7------------7----}
E{----------------------------------------5---------------------------------}

e{--------------------------------------------------------------------------}
B{--------------------------------------------------------------------------}
D{----------7---------7------9-------7-------9-----7------------------------}
G{----------7-----7---7------9--X2---7---7---9-----7--7---------7-7-7-7-7-7-}
A{----------5-----7---5------7-------5---7---7-----5--7-X2------7-7-7-7-7-7-}
E{----------------5----------------------5------------5---------5-5-5-5-5-5-}

The bit after that is just the chorus palm muted Then the Chorus itself is played again

The end the song on

G{------2-----------}
A{------2-----------}
E{------0-----------}

Вверх


Pain For Pleasure

Intro
e------------------------------------------------------------------------------
b------------------------------------------------------------------------------
g------------------------------------------------------------------------------
d------------------------------------------------------------------------------
a-7-777-777-7777-7-777-777-7777-7-777-777-7777-7-777-777-7777-7-777-777-7777---
e------------------------------------------------------------------------------
All Palm Muted

e------------------------------------------------------------------------------
b------------------------------------------------------------------------------
g------------------------------------------------------------------------------
d------------------------------------------------------------------------------
a-9-999-999-9999-9-999-999-9999-9-999-999-9999-9-999-999-9999-10-101010-101010-
e------------------------------------------------------------------------------
All Palm Muted

e------------------------------------------------------------------------------
b------------------------------------------------------------------------------
g------------------------------------------------------------------------------
d------------------------------------------------------------------------------
a-10101010-10-101010-101010-10101010-12-121212-121212-12121212----------------
e------------------------------------------------------------------------------
All Palm Muted

e------------------------------------------------------------------------------
b------------------------------------------------------------------------------
g------------------------------------------------------------------------------
d-5-5----------4-4----------2-2----------0-0----------0-0-7/9-7---0-0-7/9-7----
a-7-7-9/10-9-7-5-5-9/10-9-7-3-3-9/10-9-7-2-2-9/10-9-7-2-2------10-2-2------10--
e------------------------------------------------------------------------------

e------------------------------------------------------------------------------
b------------------------------------------------------------------------------
g------------------------------------------------------------------------------
d----------7-7-5-4-------------------------------------------------------------
a-9/10-9-7---------5/7---------------------------------------------------------
e------------------------------------------------------------------------------

e-3-2-0-2-0--3-2-0-2-0--3-2-0-2-0--3-2-0-2-0--0--------------------------------
b----------3----------1----------0----------4----------------------------------
g------------------------------------------------------------------------------
d------------------------------------------------------------------------------
a------------------------------------------------------------------------------
e------------------------------------------------------------------------------





e-0-0-3-2-0-2-0--3-2-0-2-0---3-2-0-2-0---3-2-0-2-0-----------------------------
b--------------3-----------1-----------0-----------4---------------------------
g------------------------------------------------------------------------------
d------------------------------------------------------------------------------
a------------------------------------------------------------------------------
e------------------------------------------------------------------------------




e------------------------------------------------------------------------------
b------------------------------------------------------------------------------
g-------------------------------------------------------------------------
d-5-5-5-5-5-5-5-5-5-5-5-5------------------------------------------------------------
a-7-7-7-7-7-7-7-7-7-7-7-7-----------------------------------------------
e------------------------------------------------------------------------------
Seas have parted blah blahThis Tab is 100% right my first tab but I know it is right

*=Palm Mute
x=Muffle String

Вверх


Still Waiting

Intro:

0:00
So am I still waiting for this world to stop hating
e|---------------------------------------------------------------------|
B|---------------------------------------------------------------------|
G|---------------------------------------------------------------------|
D|--9-9-9-9-9-9-9-9-5-5-5-5-5-5-5-5-----------------4-4-4-4-4-4-4-4----|
A|--7-7-7-7-7-7-7-7-3-3-3-3-3-3-3-3-5-5-5-5-5-5-5-5-2-2-2-2-2-2-2-2----|
E|----------------------------------3-3-3-3-3-3-3-3--------------------|
pm..............................................................

Can't find a good reason can't find hope to believe in
e|---------------------------------------------------------------------|
B|---------------------------------------------------------------------|
G|------------------------------------------------------------------7--|
D|--9-9-9-9-9-9-9-9-5-5-5-5-5-5-5-5-----------------7-7-7-7-7-7-7-7-7--|
A|--7-7-7-7-7-7-7-7-3-3-3-3-3-3-3-3-5-5-5-5-5-5-5-5-5-5-5-5-5-5-5-5-5--|
E|----------------------------------3-3-3-3-3-3-3-3--------------------|
pm..............................................................


Repeat 2x:

0:11
e|---------------------------------------------------------------------|
B|---------------------------------------------------------------------|
G|-------------------5--5--5--5--5--------------------5--5--5--5--5----|
D|---2--2--2--2--2---5--5--5--5--5---2--2--2--2--2----5--5--5--5--5----| Guitar 1
A|-72--2--2--2--2---3--3--3--3--3---2--2--2--2--2----3--3--3--3--3----|(intro slide only
E|-0--0--0--0--0-------------------0--0--0--0--0---------------------| the first time)
| |
e|---------------------------------------------------------------------|
B|---------------------------------------------------------------------|
G|----12--11-/-12-.--12--11-/-12-.--12--11-/-12-/-14--12--11--7--| Guitar 2
D|-----------------.---------------.-----------------------------------|(dots mean rest)
A|----10--9--/-10-.--10--9--/-10-.--10--9--/-10-/-12--10---9--5--|
E|---------------------------------------------------------------------|
no need to emphasize the sliding, it's mainly here just for flow


Verse:
At first I thought this was a punk downstroking type of verse, but then
I heard a better quality version of the song and was shocked. You can add
the octave to the sliding chords if you want, but this sounds fine as is.

0:22, 0:58
Drop dead a bullet to my head Your words are like a gun in hand
e|----------------------------------------------------------------------|
B|----------------------------------------------------------------------|
G|----------------------------------------------------------------------|
D|--2-------------------------------2---------------5---5-.-5-----------|
A|--2---------------87-.-87-.-5/7-0---------------5---5-.-5-----------|
E|--0---000-000-000-65-.-65-.-3/5-0---000-000-000-3-0-3-.-3-----------|
pm. ... ... ... ... ... .
v^v v^v v^v v^v v^v v^v

You can't change the state of the nation We just need some motivation
e|----------------------------------------------------------------------|
B|----------------------------------------------------------------------|
G|--------------------------------------------------------------7-7-7---|
D|--2-------------------------------5-5-5-5-5-5-5-5-4-4-4-4-4-/-7-7-7---|
A|--2---------------87-.-87-.-8/7-5-5-5-5-5-5-5-5-4-4-4-4-4-/-5-5-5---|
E|--0---000-000-000-65-.-65-.-6/5-3-3-3-3-3-3-3-3-2-2-2-2-2-----------|
pm......... .................................
v^v v^v v^v

Chorus:

0:42, 1:19
So am I still waiting for this world to stop hating
Can't find a good reason can't find hope to believe in
e|-------------------------------------------------------------------|
B|-------------------------------------------------------------------|
G|--9---------------5-------------------------------4----------------|
D|--9---------------5---------------5---------------4----------------| (just strum)
A|--7---------------3---------------5---------------2----------------|
E|----------------------------------3--------------------------------|


0:53
e|----------------------------------------------------------------------|
B|----------------------------------------------------------------------|
G|-----------------5-5-5-.----------------------------5-5-5-5-5-5-5-----| Guitar 1
D|-2-2-2-.---------5-5-5-.---------2-2-2-.------------5-5-5-5-5-5-5-----|(dots mean rest)
A|-2-2-2-.---------3-3-3-.---------2-2-2-.------------3-3-3-3-3-3-3-----|
E|-0-0-0-.-------------------------0-0-0-.------------------------------|
| |
e|----------------------------------------------------------------------|
B|----------------------------------------------------------------------|
G|----12--11-/-12-.--12--11-/-12-.--12--11-/-12-/-14--12--11--7---|
D|-----------------.---------------.------------------------------------| Guitar 2
A|----10--9--/-10-.--10--9--/-10-.--10--9--/-10-/-12--10---9--5---|
E|----------------------------------------------------------------------|


Bridge:

1:29
This can't last for e- ver
Time won't make things better
e|--------------------------------------|
B|--------------------------------------|
G|-----5----------7------4--7-----------|
D|-2---5-----5----7------4--7-----------| Guitar 1
A|-2---3-----5----5------2--5-----------|(just strum)
E|-0---------3--------------------------|
| |
e|--------------------------------------|
B|--------------------------------------|
G|-----------12---11-----9--11----------| Guitar 2
D|--------------------------------------|
A|-----------10---9------7--9-----------|
E|--------------------------------------|


1:39
I feel so alone
Can't help myself
And no one knows
If this is worthless tell...
e|---------------------------|
B|---------------------------|
G|--9----------5----7--------|
D|--9----------5----7--------| (just strum)
A|--7----------3----5--------|
E|--0----------0----0--------|

1:49
...me!
e|------------------------------------------------------------------|
B|------------------------------------------------------------------|
G|--9-9-9-9-9-9-9-9-9-9-9-9-9-9-9-12-12-12-12-12-11-11-11-11-11-----| Guitar 1
D|------------------------------------------------------------------|
A|--7-7-7-7-7-7-7-7-7-7-7-7-7-7-7-10-10-10-10-10-9--9--9--9--9------|
E|------------------------------------------------------------------|
| |
e|------------------------------------------------------------------|
B|------------------------------------------------------------------|
G|-----------------5-5-5-.-----------------------4-4-4-.------------| Guitar 2
D|--2-2-2-.--------5-5-5-.--------5-5-5-.--------4-4-4-.------------|
A|--2-2-2-.--------3-3-3-.--------5-5-5-.--------2-2-2-.------------|
E|--0-0-0-.-----------------------3-3-3-.---------------------------|


1:54
What have we done We're in a war that can't be won
This can't be real So I don't know what to f...
e|-----------------|----------------|-----------------|-----------------------|
B|-----------------|----------------|-----------------|-----------------------|
G|-----------------|----------------|-----------------|-----------------------| Guitar 1
D|----9------------|----9-----------|-----9-----------|-----------------------|
A|-7-----10-9---9--|-7-----10-9---9-|-10-----10-9---9-|-10-9-9-10-12-10-9-10--|
E|-----------10----|-----------10---|------------10---|-----------------------|
| (no matter how punk you are, don't try to downstroke this) |
e|-----------------|----------------|-----------------|-----------------------|
B|-----------------|----------------|-----------------|-----------------------|
G|-----------------|-5--5--5--------|-----------------|-4--4--4---4--4--4-----|
D|-2--2--2---------|-5--5--5--------|-5--5--5---------|-4--4--4---4--4--4-----| Guitar 2
A|-2--2--2---------|-3--3--3--------|-5--5--5---------|-2--2--2---2--2--2-----|
E|-0--0--0---------|----------------|-3--3--3---------|-----------------------|
pm pm
You can transpose the above to the 2nd fret of the D string
(rather than the 7th of the A string) for a subtly "sharper"
sound, but IMO, that doesn't seem like the correct place
for a run like this. This lick is a good pinky exercise. ;)

2:14
...eel!
e|---------------------------------------------------|
B|---------------------------------------------------|
G|---------------------------------------------------|
D|--\\\\\///////////\\\\\///////////-----|
A|--\\\\\///////////\\\\\///////////-----|
E|---------------------------------------------------|
This means pick scrape wildly


Repeat chorus 2x, then end the song with:

2:35
e|-------------------------------|
B|-------------------------------|
G|--9-9-9-9-9-9-9-9-9------------|
D|--9-9-9-9-9-9-9-9-9------------|
A|--7-7-7-7-7-7-7-7-7------------|
E|-------------------------------|

Вверх


Summer

B ------33--3---33--3---33--3-3-3---------------------
G ----------------------------------------------------
D ----------------------------------------------------
A ----------------------------------------------------
E ----------------------------------------------------

Guitar 2: intro

e ---------------------------------------------------
B ---------------------------------------------------
G -------7-------4-------------------------------------
D -------7-------4------5---------7--------------------
A -------5-------2------5---------7------------------
E ----------------------3---------5------------------
Let ring out

Guitar 1: intro 2

e ---------------------------------------------------
B ---------------------------------------------------
G ---------------------------------------------------
D ---------------------------------------------------
A ----5--5s7--7s9--10-9------5--5s7--7s9---10--12----
E ---------------------------------------------------


e ---------------------------------------------------
B ---------------------------------------------------
G ---------------------------------------------------
D ---------------------------------------------------
A ----5--5s7--7s9--10-9--------5--5s7--7s9--10--9----
E ---------------------------------------------------

e ---------------------------------------------------
B ---------------------------------------------------
G ---------------------------------------------------
D ---------------------------------------------------
A ----5--5s7--7s9---7h9p7----5-----------------------
E ---------------------------------------------------

Not all that sure about that part but hey it works for me.


Guitar 1: verse

e ---------------------------------------------------
B ---------------------------------------------------
G ----777777777----44444444--------------------------
D ----777777777----44444444-----55555555----77777777-
A ----555555555----22222222-----55555555----77777777-
E ------------------------------33333333----55555555-

intro 2
verse

At the end of the second time you play the verse you go

e --------------------------------------------------
B --------------------------------------------------
G --------------------------------------------------
D --------------------------------------------------
A -----5------------7-------------------------------
E -----3------------5-------------------------------
(Let ring)

then play verse but only struming each chord twice.

Intro 2
verse pm
verse

Вверх


What Were All About

| Guitar 1 |
|-----|---------5-9-5-------------5-9-5---|
|-(7)-|-7-5-7-9-------9---7-5-7-9-------9-|
|-(6)-|-----------------------------------|
|-----|-----------------------------------|
|-----|-----------------------------------|
|-----|-----------------------------------|
| Guitar 1 - cont'd |
|------------5--9-5----------------5--9-5----|
|--7-5--7--9---------9---7-5--7--9---------9-|
|--------------------------------------------|
|--------------------------------------------| Play 2x
|--------------------------------------------|
|--------------------------------------------|
| Guitar 2 |
|------------9-12-9----------------9-12-9----|
|-10-9-10-12--------12--10-9-10-12--------12-|
|--------------------------------------------|
|--------------------------------------------|
|--------------------------------------------|
|--------------------------------------------|
| Guitar 1 - cont'd |
|-12----11----10-----9----|
|----13----12----11----10-|
|-------------------------|
|-------------------------|
|-------------------------|
|-------------------------|
| Guitar 2 - cont'd |
|-14----13----12----11----|
|----14----13----12----11-|
|-------------------------|
|-------------------------|
|-------------------------|
|-------------------------|
Verse
-----
| Bass 1 - Tab'd for guitar |
|------------------------|------------------------|
|------------------------|------------------------|
|------------------------|------------------------|
|------------------------|------------------------|
|------------------------|------------------------|
|-2----2-5----5-7----5-7-|-2----2-5----5-7--------|
| Sometimes the accompanying power chords are played,
| late in the song, the following riff is played
| (First played at 2:22)
|------------------------|------------------------|
|------------------------|-7----7-5----5-4--------|
|------------------------|------------------------|
|------------------------|------------------------|
|------------------------|------------------------|
|------------------------|------------------------|
| Guitar 1 - Fill 1 (First played at 0:29)
|----------------------|
|----------------------|
|----------------------|
|----------------------|
|-2-0-2-3-2-0-2-3-2-0--|
|----------------------|
[ ^ ^ ^ ^ ^ ^ ^ ^ ^ ^ ]
P.M.
| Guitar 1 - Fill 2 (First played at 0:43)
|----------------------|
|-7--------------------|
|---8-6----------------|
|--------7-------------|
|----------------------|
|----------------------|
Chorus
------
|--------------------|
|--------------------|
|--------------------| Play a bunch of times
|--------------------|
|-4-4--7-----9-9-10--|
|-2-2--5-----7-7-8---|
Solo
----
|-------------/?-------/?--22b(24)-22b(24)-/?----/?---------|
|-------------/?--19vv-/?------------------/?----/?--/?-----|
|-11/16-16vv------------------------------------------------|
|-----------------------------------------------------------|
|-----------------------------------------------------------|
|-----------------------------------------------------------|
[ ^ ^ ^ ^ ^ ]
[ Tremolo effects ]
|------------------/?---19b(21)r(19)vvv-22b(24)-|
|------------------/?---------------------------|
|-11/16------/(22)------------------------------|
|-------16--------------------------------------|
|-----------------------------------------------|
|-----------------------------------------------|
[ ^ ]
[ and one last tremolo effect ]
(tremolo picking)
|-19-19-22-22-21-19-19-19-22-21-19-18-18-21-19-18-17-17-20-19-17----|
|----------------------------------------------------------------20-|
|-------------------------------------------------------------------|
|-------------------------------------------------------------------|
|-------------------------------------------------------------------|
|-------------------------------------------------------------------|

Вверх