Приключения Электроников

33 коровы
Волшебник-недоучка
Все пройдет
Все пройдет (2 вариант)
Грустная песня Сыроежкина
Двадцать ноль-ноль
До свидания, Москва
Крылатые качели
Лесной олень
Неуловимые мстители (Погоня)
Облака — белогривые лошадки
Песенка друзей (Если с другом вышел в путь)
Прекрасное далёко
Прекрасное далёко (2 вариант)
Синий иней
Трава у дома
Трава у дома (2 вариант)
Вверх

33 коровы

Вступление: C5 F5 G5 C5

C              F
В центре города большого,
C              G
Где травинка не растет
C               F
Жил поэт - волшебник слова,
G           C
Остроумный рифмоплет.
C            F
Рифмовал он что попало,
C             G
Просто выбился из сил
A5            F5
И в деревню на поправку,
A5             F5
Где коровы щиплют травку
G5
Отдыхать отправлен был.

C5          E5          A5
Пр: 33 коровы, 33 коровы, 33 коровы
G5
Свежая строка,
F5                 C5
33 коровы, стих родился новый
G5                C5
Как стакан парного молока.
F5                 C5
33 коровы, стих родился новый
G5                C5
Как стакан парного молока.



В пять часов вставал он ровно -
Это было нелегко
Он читал стихи коровам -
Те давали молоко.
Словно быль промчалось лето,
Очень вырос наш поэт,
Ведь молочная диета
Благотворна для поэтов,
Если им всего шесть лет!

Повтор припева 2 раза.

(Бас  во всей песни идет по гармонии)

Вверх

Волшебник-недоучка

 A
Вычислить путь звезды
Dm         G
И развести сады
C           F
И укротить тайфун
Hm         E
Все может магия

Есть у меня диплом
Только вот дело в том
Что всемогущий маг
Лишь на бумаге я

Припев:
A             Hm     E             A
Даром преподаватели время со мною тратили
A              Hm      E             A
Даром со мною мучался самый искусный маг
A             Hm        E           A
Мудрых преподавателей слушал я не внимательно
A                    Hm   E       A
Все, что не задавали мне, делал я кое-как

Сделать хотел грозу
А получил козу
Розовую козу
С желтою полосой

Вместо хвоста нога
А на ноге рога
Я не хотел бы вновь
Встретиться с той козой

Припев.

Сделать хотел утюг
Слон получился вдруг
Крылья как у пчелы
Вместо ушей цветы

Ночью мне сниться сон
Плачут коза и слон
Плачут и говорят
Что с нами сделал ты

Припев.

Когда последний раз играется припев все аккорды играются на 2
тоны выше, т.е H C#m F# H

Вверх

Все пройдет

Вступление:

Cm       Fm         Cm       G
G||-5-------------------5-------------
D||----3-5--3-6--3-8-6-----3-5--5-----(2 раза)
A||-------------------------------5---

Cm               Fm
Вновь о том, как день уходит с земли
G            Cm
Ты не громко спой мне.
G#                   D#
Этот день быть может где-то в дали
Fm            G
Мы не однажды вспомним

Cm                      Fm
Вспомни, как прозрачный месяц плывет
G           Cm
Над ночной прохладой
G#          D#
Лишь о том, что все пройдет
G         Cm
Вспоминать не надо.
G#          D#
Лишь о том, что все пройдет
G         Cm
Вспоминать не надо.

Припев:
Cm     G               Cm
Все пройдет и печаль и радость
Cm     G                 Cm
Все пройдет, так устроен свет
Cm      Fm     G        Cm
Все пройдет, только верить надо,
Cm   Fm  G
Что любовь   не проходит, нет.

Спой о том, как в даль идут корабли
Не сдаваясь буре.
Спой о том, что ради нашей любви
Весь этот мир придуман.

Спой о том, как биться не устает
Сердце с сердцем рядом
Лишь о том, что все пройдет
Вспоминать не надо.
Лишь о том, что все пройдет
Вспоминать не надо.

Вверх

Все пройдет (2 вариант)

INTRO (2 раза):
E|------------------------------------------------|
B|------------------------------------------------|
G|-5------------------------------5---------------|
D|------5-6----5--6----5--8--6---------5-6----8-5-|
A|------------------------------------------------|
E|------------------------------------------------|

КУПЛЕТ 1:
(перебором)
Am                   Dm             E           Am
Вновь о том как день уходит с земли ты негромко спой мне
C                    G            E             Am
Этот день быть может где-то вдали мы не однажды вспомним
(по тоникам)
Am                      Dm           E          Am
Вспомним как прозрачный месяц плывет над ночной прохладой
Dm          C               E          Am
Лишь о том, что все пройдет вспоминать не надо
(квинтами)
D5          C5              E5         A5
Лишь о том, что все пройдет вспоминать не надо

ПРИПЕВ:
A5  E5        G5         C5
Все пройдет - и печаль и радость
A5  E5        G5          C5
Все пройдет - так устроен свет
A5  E5       G5            C5
Все пройдет, только верить надо,
D5  C5     E5            A5
Что любовь не проходит - нет

INTRO (1 раз)

КУПЛЕТ 2:
Спой о том как вдаль идут корабли не сдаваясь буре
Спой о том, что ради нашей любви весь этот мир придуман
Спой о том как биться не устает сердце с сердцем рядом
Лишь о том, что все пройдет вспоминать не надо | 2 раза

ПРИПЕВ

СОЛО:
E|-----5-------------------------------------------------------|
B|-5/7---7-7-5/7-5---------3-5-3-1---1-------------------------|
G|-----------------2/4-2h4---------3---2b4-2b4-2---------2h4p2-|
D|-----------------------------------------------2h4-2h4-------|
A|-------------------------------------------------------------|
E|-------------------------------------------------------------|

E|-------------------------------------------------------|
B|-------------------------------------------------------|
G|-9-7h9-7h9p7-7-5h7-5h7p5-10-8-10-8---10b12-8--10-8-8---|
D|-----------------------------------10------10-------10-|
A|-------------------------------------------------------|
E|-------------------------------------------------------|

E|---------------------------|
B|---------------------------|
G|-10b12b10---7-9-11-9-7-9-7-|
D|---------10----------------|
A|---------------------------|
E|---------------------------|

E|-------------------------------------------------------------|
B|-------------------------------------------------------------|
G|-5-7-9-7-5-7-5----9--7-----7--9--11b12--9--7--9--7--7--11b12-|

Вверх

Грустная песня Сыроежкина

Проигрыш:
G
У-Е-Е!
C
У-Е-Е!
У-Е-Е!
У-Е-Е!

Куплет 1:
G                      C
Шуршится мокро дождик моросящий;
G           Em        Am  D
Душа моя в тревоге и тоске.
G                     C    C - D - D#
Я человек, наверное, пропащий;
G            C     D     C   D
Зачем я строил планы на песке?

Куплет 2:

Сгустились надо мною злые тучи;
И вот я оказался не у дел.
Я человек, наверно, не везучий;
Ну почему страдает мой удел.

Куплет 3:

Никто не проявляет интереса
К моей, на век загубленной, судьбе.
Попался я на удочку прогресса;
И этим страшно навредил себе.

Куплет 4:
Куда бежать и где искать удачи?
Она в какие спряталась края?
Я не могу, боюсь, сейчас заплачу;
А впрочем, это песенка моя.

Используемые риффы:

C       G       Em      D       Am
E|---|  E|---|  E|---|  E|---|  E|---|
B|---|  B|---|  B|---|  B|---|  B|---|
G|-5-|  G|---|  G|-9-|  G|-7-|  G|---|
D|-5-|  D|-5-|  D|-9-|  D|-7-|  D|-7-|
A|-3-|  A|-5-|  A|-7-|  A|-5-|  A|-7-|
E|---|  E|-3-|  E|---|  E|---|  E|-5-|

D#
E|---|
B|---|
G|-8-|
D|-8-|
A|-6-|
E|---|

Вверх

Двадцать ноль-ноль

Hm
Двадцать ноль-ноль,
G (III)
Все давно ушли домой лишь она
Hm
Не спеша накинет плащ и одна,
A(V)  G
Как всегда свой путь начнёт


Мимо витрин,
Манекенов, фотографий актрис
Чья улыбка для неё словно миф
Незнакомка вновь идёёёёёёёёёёёёт

ПРИПЕВ

Hm
Может быть известный режиссёр
G(III)
Для неё найдёт в картине роль,
Hm              A(V)   G(III)
А художник напишет портрет, оеее
Hm
Может быть ей песню посветят
G  (III)
И подарят самый нежный взгляд,
Hm        A(V) G(III)
И стихи прочитает поэт

Двадцать ноль три,
Манекены из витрин смотрят вслед,
Им хотелось – бы открыть ей секрет,
Что она прекрасней всех.

Только она,
Продолжает путь одна, как всегда,
Незнакомка в свете ярких огней,
Я опять иду за неееееееееееееей

Вверх

До свидания, Москва

Am
На трибунах становится тише,
A7             Dm
Тает быстрое время чудес.
E      F
До свиданья, наш ласковый Ми-и-и-ша,
Dm            E         Am
Возвращайся в свой сказочный лес.

Не грусти, улыбнись на прощанье,
Вспоминай эти дни, вспоминай.
Пожелай исполненья желаний,
Новой встречи нам всем пожелай.

(Проигрыш)

Пожелаем друг другу успеха,
И добра, и любви без конца.
Олимпийское звонкое эхо
Остается в стихах и сердцах.

До свиданья, Москва, до свиданья,
Олимпийская сказка прощай.
Пожелай исполненья желаний,
Новой встречи друзьям пожелай.

D         E
Расстаются друзья,
A7            D
Остается в сердце нежность.
D* D   G
Будем песню беречь,
D          A7      D
До свиданья, до новых встреч.
Будем песню беречь,
До свиданья, до новых встреч.

На-на-на-на-на-на... (под
D  G   B7 (на I-ом ладу) H#7  D...)

P.S. D* E|-3-|
B|-3-|
G|-2-|

Вверх

Крылатые качели
mp3

  Am            E       Am                E
В юном месяце апреле в старом парке тает снег
F           Dm       Gm           A
И веселые качели начинают свой разбег
Am               E     A7                  Dm
Позабыто все на свете! Сердце замерло в груди!
F            Dm            E            Am
Только небо, только ветер, только радость впереди.
F            Dm            E            Am
Только небо, только ветер, только радость впереди.

Припев.

D        A       C        G
Взмывая выше ели, не ведая преград
D       A
Крылатые качели
C         F  A
летят летят, летят.
D       A      C         F  A
Крылатые качели летят летят, летят.

Детство кончится когда-то, ведь оно не навсегда,
Станут взрослыми ребята, Разлетятся кто-куда
но пока мы только дети, нам расти еще расти
Только небо, только ветер, только радость впереди.

Припев.

Шар земной быстрей кружится от весенней кутерьмы
И поют над нами птицы. И поем как птицы мы.
Позабыто все на свете, сердце замерло в груди
Только небо, только ветер, только радость впереди.

Припев.

Вверх

Лесной олень
mp3

Am                       C
Осенью в дождливый серый день
Dm          E      Am
Пробежел по городу олень
Dm           G           C
Он летел по гулкой мостовой
Dm                 E
Рыжим лесом пущеной стрелой

Припев:
Am                   E
Вези меня олень по моему хотенью
Dm
Умчи меня олень в свою страну оленью
G        C
Где сосны рвутся в небо
Dm
Где быль живет и небыль
E                  Am
Умчи меня туда лесной олень

Am                 C
Он летел и синие рога
Dm        E      Am
Задевали тучи облака
Dm          G            C
И казалось буд-то бы над ним
Dm             E
Становилось небо голубым

Припев

Am                      C
Говорят чудес на свете нет
Dm          E          Am
И дождями смыт олений след
Dm           G            C
Только знаю он ко мне прийдет
Dm               E
Если верить сказка оживет


Припев:
Am                   E
Со мной лесной олень по моему хотенью
Dm
И мчит меня олень в свою страну оленью
G       C
Где сосны рвутся в небо
Dm
Где быль живет и небыль
E                  Am
Умчит меня туда лесной олень

Припев (последнюю строку припева 3 раза)

Вверх

Неуловимые мстители (Погоня)

E|-------------------------------------------|
B|-1--------------1-4-2------------1---------|
G|-----------1--------------1--0--------0--1-|
D|------3------------------------------------|
A|-------------------------------------------|
E|-------------------------------------------|

E|---------------1----3----1---------------------|
B|-------------1-----------------4-----------2-1-|
G|-0---------1-------------------------3---------|
D|------3----------------------------------------|
A|-----------------------------------------------|
E|-----------------------------------------------|

E|------4----1----4-3-------------------------3-|
B|-1------------------4-----------7----6----4---|
G|--------------------------5-------------------|

E|----------------------------------------1-|
B|-----------------------------2--2----2----|
G|-1--0--0----0--3-----3----3---------------|

E|-1----1--------------------------|
B|---------1----4-----------2----1-|
G|---------------------------------|

E|----------------------------------------1-|
B|-----------------------------2--2----2----|
G|-1--0--0----0--3-----3----3---------------|

E|-1----1-------4-----------3----1-|
B|---------1-----------------------|
G|---------------------------------|

Вверх

Облака — белогривые лошадки

      F#m
Мимо белого яблока луны
E                A
Мимо красного яблока заката
Hm                  F#m
Облака из неведомой страны
C#                  F#m
К нам спешат и опять бегут куда-то
F#m	       C#
Облака, белогривые лошадки
C#                       F#m
Облака, что вы мчитесь без оглядки
Hm		 F#m
Не смотрите вы пожалуйста свысока
C#	      F#m
А по небу прокатите нас облака

Я на облаке лихо прокачусь
Небоюсь я ни холода ни града
Нал землей удивленной пронесусь
Для меня в синем небе нет преграды

Облака, белогривые лошадки
Облака, что вы мчитесь без оглядки
Не смотрите вы пожалуйста свысока
А по небу прокатите нас облака

Вверх

Песенка друзей (Если с другом вышел в путь)

Ла-ла-ла (Под аккорды Dm Am E Am
Dm Am E Am E)
Am
Если с другом вышел в путь
Если с другом вышел в путь
E
Веселей дорога
Без друзей меня чуть чуть
Без друзей меня чуть чуть
Am
А с друзьями много

[ПРИВЕВ]
Dm
Что мне снег что мне зной
Am
Что мне дождик проливной
E                Am
Когда мои друзья со мной
A7      Dm
Что мне снег что мне зной
Am
Что мне дождик проливной
E                Am     E
Когда мои друзья со мной

Там где трудно одному
Там где трудно одному
Справлюсь вместе с вами
Где чегой то не пойму
И чегой то не разберу
Разберем с друзьями

[ПРИПЕВ]

Вот соло саксофона, только исполняется на гитаре:

RiFF 1

E|--------8-10-8-------|  |--------8-10-8----|
B|--10-12--------12-10-|  |--10-12--------12-|
G|---------------------|  |------------------|
D|---------------------|x2|------------------|
A|---------------------|  |------------------|
E|---------------------|  |------------------|

RiFF 2

E|--------7-8-7--------|  |-------7-8-7------|
B|---9-10-------10-9---|  |--9-10-------10---|
G|---------------------|  |------------------|
D|---------------------|x2|------------------|
A|---------------------|  |------------------|
E|---------------------|  |------------------|

Дальше идёт импровизация

Импровизация 1

E|------------------------------|
B|-12-10-9-10-10-8--------------|
G|-----------------10-9-7-9-7-9-|
D|------------------------------|
A|------------------------------|
E|------------------------------|

Импровизация 2

E|----12-10---------------|
B|-12-------13-12-10-9-10-|
G|------------------------|
D|------------------------|
A|------------------------|
E|------------------------|

На медведя я друзья
На медведя я друзья
Выйду без испуга
Если с другом буду я
Если с другом буду я
А медведь без друга

[ПРИПЕВ]

Ла-ла-ла...

В басу идут арпеджио для Am, E, Dm
Бас для Песенка друзей ("Если с другом вышел в путь")
Am             E            Dm
G|----------| G|----1-4-1-| G|------2---|
D|------3---| D|--2-------| D|--0-3---3-|
A|--0-3---3-| A|----------| A|----------|
E|----------| E|----------| E|----------|

Вверх

Прекрасное далёко

      Hm                     F#
Слышу голос из Прекрасного Далека,
F#                     Hm
Голос утренний в серебрянной росе.
G           A       D
Слышу голос - и манящая дорога.
D     G             G7          F#
Кружит голову, как в детстве карусель.

Припев:
Hm       G
Прекрасное Далеко!
F#      F#7    Hm
Не будь ко мне жестоко,
G              D
Не будь ко мне жестоко,
A       D
Жестоко не будь!
Hm         G
От чистого истока
F#       Hm
В Прекрасное далеко!
G           Hm
В Прекрасное далеко
F#      Hm
Я начинаю путь.

Слышу голос из прекрасного Далека,
Он зовет меня в чудесные края.
Слышу голос - голос спрашивает строго:
А сегодня что для завтра сделал я?

Припев:

Вверх

Прекрасное далёко (2 вариант)

   Riff 1 |Riff 2|    Riff 3  |    Riff 4  | Riff 5 | Riff 6
E|-x---x--|x---x-|--x---x---x-|--x---x-----|--x---x-|--x---x-|
B|-x---x--|x---x-|--x---x---x-|--x---x-----|--x---x-|--x---x-|
G|-x---7--|x---2-|--x---x---5-|--x---7-----|--x---5-|--x---5-|
D|-7---7--|2---2-|--3---5---5-|--3---7---2-|--3---5-|--5---5-|
A|-7---5--|2---0-|--3---5---3-|--3---5---2-|--3---3-|--5---3-|
E|-5------|0-----|--1---3-----|--1-------0-|--1-----|--3-----|

b|-------|
a|-------| Слышу голос из
s|----5>-| Прекрасного Далека
s|-5>----|

b|-------|
a|-------| Голос утренний в
s|----5>-| серебряной росе
s|-0>----|

(Riff 3) Слышу голос и манящая дорога
(Riff 4) Кружит голову как в детстве карусель
(Riff 1) Прекрасное Далеко
(Riff 2) Не будь ко мне жестоко
(Riff 5) Не будь ко мне жестоко
(Riff 6) Жестоко не будь
(Riff 1) От чистого истока
(Riff 2) В Прекрасное Далеко
(Riff 5) В Прекрасное Далеко
(Riff 2) Я начинаю путь
(Riff 1) Слышу голос из Прекрасного Далека
(Riff 2) Он зовет меня в прекрасные края
(Riff 3) Слышу голос голос спрашивает строго
(Riff 4) A сегодня что для завтра сделал я
(Riff 1) Прекрасное Далеко
(Riff 2) Не будь ко мне жестоко
(Riff 5) Не будь ко мне жестоко
(Riff 6) Жестоко не будь
(Riff 1) От чистого истока
(Riff 2) В Прекрасное Далеко
(Riff 5) В Прекрасное Далеко
(Riff 2) Я начинаю путь,
(Riff 2) Я начинаю путь,
(Riff 2) Я начинаю путь...

Вверх

Синий иней

 G5
Синий синий иний
Синий синий иний
C5
Синий синий иний
Синий синий иний
D5
Синий синий иний
Синий синий иний
G5
Ууу...

G5
Синий синий иний лег на провода
C5
В небе темно-синем синяя звезда
D5                       G5
Ууу...Только в небе небе темно-синем

Синий поезд мчиться в ночи голубой
Мне за синий птицей, еду за тобой
Ууу...За тобою как за синей птицей

Припев:
C5            F5
Ищу я лишь её мечту свою
D5             G5
И лишь она одна мне нужна
F5             G5
Ты ветер знаешь все и скажешь мне
C5       D5
Она, она, где она

Облака качнуться, поплывут назад
Лишь бы окунуться в синие глаза
Ууу...Лишь в глаза твои мне окунуться

Припев.

Вверх

Трава у дома

    Am
Земля в иллюминаторе,
F
Земля в иллюминаторе,
Dm                   E
Земля в иллюминаторе видна.
Am
Как сын грустит о матери,
F
как сын грустит о матери,
Dm          E          Am
Грустим мы о Земле - она одна.

Am
А звезды тем не менее,
F
А звезды тем не менее,
Dm                       E
Чуть ближе, но все так же холодны.
Am
И как в часы затмения,
F
И как в  часы затмения,
Dm        E          Am
Ждем света и земные видим сны.

Припев:
Am                           E
И снится нам не рокот космодрома,
Dm          E      Am
Не эта ледяная синева.
E
А снится нам трава, трава у дома.
Dm         E       Am
Зеленая, зеленая трава.

А мы летим орбитами,
Путями неизбитыми.
Прошит метеоритами простор.
Оправдан риск и мужество,
Космическая музыка
Влетает в деловой наш разговор.

В какой то дымке матовой
Земля в иллюминаторе
Вечерняя и ранняя заря.
Как сын грустит о матери,
Как сын грустит о матери,
Ждет сына мать, а сыновей - земля

Вверх

Трава у дома (2 вариант)

Intro:

Guitar1:
E|-----------------| |-----------------|
B|-----------------| |-----------------|
G|-----------------| |-----------------|
D|---5-6-6-5-6-5---| |-----------------|
A|-7---0---------7-| |---3-5-5-3-3-3---|
E|-----------------| |-5-------------5-|

В это время Guitar2:
A5        C5         D5        A5

Intro играется 4 раза

1 куплет:
(только бас по гармонии)
Am
Земля в иллюминаторе,
C
Земля в иллюминаторе,
Dm                       G
Земля в иллюминаторе видна,
Dm
Как сын грустит о матери,
Dm
как сын грустит о матери,
E                         Am
Грустим мы о Земле - она одна.

(вступает гитара квитами, т.е. вместо:
Am – A5, C – C5, G – G5 и тд)

Am
А звезды тем не менее
C
А звезды тем не менее
Dm                            G
Все ближе, но все так же холодны
Dm
И как в часы затмения
Dm
И как в  часы затмения
E                         Am
Ждем света и земные видим сны.

Проигрыш:G5 A5 G5 A5 G5 A5 + Drums

Припев:
Am                         E
И снится нам не рокот космодрома
Dm       E       Am
Не эта ледяная синева
Am                          E
А снится нам трава, трава y дома
Dm          E     Am
Зеленая, зеленая трава.

Intro: x 2

2 куплет:
А мы летим орбитами
Путями неоткрытыми
Пробит метеоритами простоp
Оправдан риск и мужество
Космическая музыка
Влетает в деловой наш разговор.

В Какой то дымке матовой
Земля в иллюминаторе
Вечерняя и дальняя видна
Как сын грустит о матери
Как сын грустит о матери
Грустим мы о Земле - она одна.

Проигрыш:
Припев: х 3
Intro: x 2 + guitar1 в конце ля на струне Е на 17 ладу
Проигрыш.
Конец песни.

Для тех кто не знает:
A5  C5  D5  E5  G5
E|---|---|---|---|---|
B|---|---|---|---|---|
G|---|-5-|-7-|-9-|---|
D|-7-|-5-|-7-|-9-|-5-|
A|-7-|-3-|-5-|-7-|-5-|
E|-5-|---|---|-0-|-3-|

Бас во всех куплетах идёт по гармонии:
A   C   D   G   E
G|---|---|---|---|---|
D|---|---|---|---|-2-|
A|---|-3-|-5-|---|---|
E|-5-|---|---|-3-|---|

В припеве:

G|---------------------------------|
D|---------------------------------|
A|---------------------------2-----|
E|-5-5-5-5-5-5-5-5-0-0-0-0-4---4-0-|

Вверх