Бони неМ

В мире животных
Замок из дождя
Плачет девочка с автоматом
Яблоки на снегу
Яблоки на снегу (2 вариант)
Вверх

В мире животных

intro

1 2 3 4 5 6 1 2 3 4 5 6 1 2 3 4 5 6 1 2 3 4 5 6
clean gtr
G|-----7-7-7-7-----7-7-7-7-----------------7-7-7-7-|
|     * * * *     * * * *                 * * * *  pm
|bass
A--3-----------3-1---1-0---1-----------|
E|-3-----------------------------------------------|


1 2 3 4 5 6 1 2 3 4 5 6 1 2 3 4 5 6
clean gtr
G|-----7-7-7-7-----7-7-7-7--------------|
|     * * * *     * * * *               pm
|bass
A---3----------5-3---6-5----|
E|-3------------------------------------|


1 2 3 4 5 6 1 2 3 4 5 6 1 2 3 4 5 6 1 2 3 4 5 6
e--------------------------------------|
B|-------3-----------3-----------3-----------3-----|
G|---------3-----------3-----------3-----------3---|
D5-----------5-----------5-----------5-|
A|-5---5-------5---5-------5---5-------5---5-------|
E--------------------------------------|





solo1
1  2  3  4  5  6  1  2  3  4  5  6  1  2  3  4  5  6  1  2  3  4  5  6
clean gtr
B--------------------------------------------------------------|
/1/2
G|----7--5-----5--7--7-----/-----------------------7-----------------------|

D|----------8--------------------8--8-----7--7-----------------------------|

A--------------------------------------------------------------|

E--------------------------------------------------------------|


1  2  3  4  5  6  1  2  3  4  5  6  1  2  3  4  5  6  1  2  3  4  5  6
B--------------------------------------------------------------|

G--------------------------------------------------------------|
/full
D|----8p 7-----7--8--8-----/-----------------------------------------------|

A|----------10-------------------10-10----9--9-----------------------------|

E--------------------------------------10----------------------|


1  2  3  4  5  6  1  2  3  4  5  6  1  2  3  4  5  6  1  2  3  4  5  6

B--------------------6--6---------------------------------------|
/1/2            /1/2
G|----7--5-----5--7--7-----/--------------7/-------------------------------|

D|----------8---------------------------------------------------------------|

A---------------------------------------------------------------|

E---------------------------------------------------------------|


1  2  3  4  5  6  1  2  3  4   5  6  1  2  3  4  5  6  1  2  3  4  5  6
B---------------------------------------------------------------|

G--------------------75----------------------------------------|
/full
D|----8p 7-----7--8--8-----/---------8-----8--7-----5-----------------------|

A|----------10--------------------------------------------------------------|

E---------------------------------------------------------------|







solo2(w/fig1)
1  2  3  4  5  6  1  2  3  4  5  6  1  2  3  4  5  6  1  2  3  4  5  6
clean gtr
B--------------------------------------------------------------|
/1/2
G|----7--5-----5--7--7-----/-----------------------------------------------|

D|----------8--------------------8--8-----7--7-----------------------------|

A--------------------------------------------------------------|

E--------------------------------------------------------------|


1  2  3  4  5  6  1  2  3  4  5  6  1  2  3  4  5  6  1  2  3  4  5  6
B--------------------------------------------------------------|

G--------------------------------------------------------------|
/full
D|----8p 7-----7--8--8-----/-----------------------------------------------|

A|----------10-------------------10-10----9--9-----------------------------|

E--------------------------------------------------------------|


1  2  3  4  5  6  1  2  3  4  5  6  1  2  3  4  5  6  1  2  3  4  5  6
/1/2
E--------------------8--8-----6/------------------------------|

B--------------------------------------------------------------|
/1/2
G|----7--5-----5--7--7-----/-----------------------------------------------|

D|----------8--------------------------------------------------------------|

A-------------------------------------------------------------|

E--------------------------------------------------------------|


1  2  3  4  5  6  1  2  3  4  5  6  1  2  3  4  5  6  1  2  3  4  5  6
B--------------------8------------------------------------------|

G-----------------------11----11-10----8------------------------|
/full
D|----8p 7-----7--8--8-----/------------------------------------------------|

A|----------10--------------------------------------------------------------|

E---------------------------------------------------------------|










solo3
1  2  3  4  5  6  1  2  3  4  5  6  1  2  3  4  5  6  1  2  3  4  5  6
dist gtr&wah;
B--------------------------------------------------------------|
/1/2
G|----7--5-----5--7--7-----/-----------------------7~----------------------|

D|----------8--------------------8--8-----7--7-----------------------------|

A--------------------------------------------------------------|

E--------------------------------------------------------------|


1  2  3  4  5  6  1  2  3  4  5    6  1  2  3  4  5  6  1  2  3  4  5  6
e--------10   12----10-108--------------------------------------|

B-------------------------------11-10----8------------------------|

G-----------------------------------------------------------------|

D|----8p 7-----7--8-----------------------------------------------------------|

A|----------10----------------------------------------------------------------|

E-----------------------------------------------------------------|


1  2  3  4  5  6  1  2  3  4  5  6  1  2  3  4  5  6  1  2  3  4  5  6

e-----------------------13-13-----------------------------------|
/1/2
B|----15-13----13-15-15----/-----15----------13 /  15~----------------------|

G|----------15--------------------------------------------------------------|

D---------------------------------------------------------------|

A---------------------------------------------------------------|


1  2  3  4  5  6  1  2  3  4  5  6  1  2  3  4  5  6  1  2  3  4  5  6
e--------------------------------14----15~----------------------|

B-----------------------15-15-----------------------------------|
/full
G|----15p14----14-15-15----/-----15-----------------------------------------|

A|----------17--------------------------------------------------------------|

E---------------------------------------------------------------|




outro

1 2 3 4 5 6 1 2 3 4 5 6 1 2 3 4 5 6 1 2 3 4 5 6
dist gtr
e--------------------------------------|
B--5-----------5-3---3-2---3-----------|
G|-5-----------5-----------5-3---3-2---3-----------|
A|-5-----------3-----------3-1---1-0---1-----------|
E|-3-----------------------------------------------|

1 2 3 4 5 6 1 2 3 4 5 6 1 2 3 4 5 6
e--------------------------|
B--5-----------7-5---8-7---|
G|-5-----------5-----------7-5---8-7---|
A|-5-----------3-----------5-3---6-5---|
E|-3-----------------------------------|


1 2 3 4 5 6
dist gtr
e--|
B--|
G|-5-----------|
A|-5-----------|
E|-3-----------|
|
|clean gtr
e--------------------------------------|
B|-------3-----------3-----------3-----------3-----|
G|---------3-----------3-----------3-----------3---|
D5-----------5-----------5-----------5-|
A|-5---5-------5---5-------5---5-------5---5-------|
E--------------------------------------|

Вверх

Замок из дождя

Tuning D

Intro
Riff A1
Gtr 1 (clean electric)                        x10
|--0----------1--x-3-3--x-----------|
||*-----1--------1--------1--x-3-3--x----------*|
||--------2--------2------2--x-4-4--x-----------|
||----------2--------2----3--x-5-5--x-----------|
||*--0--------------------3--x-5-5--x----------*|
--1--x------------------|


Gtr 2 lead (smooth dist)            full    full
-------------/-------/-------------------------------------|
------------/--21---/--------------------------------------|
||--9-12—14~---17p1614--16-17~----19-------19----1412--1210--109--7-7-7h10p9~--|
-----------------------------------------------------------|
-----------------------------------------------------------|
-----------------------------------------------------------|


Gtr 2 lead                          full                                   full
-------------------------/--------------------------------------/----||
---------------------18-20r------------------------------------/-----||
-15--17--19-19/21~----------21--19--21-19h21~-----------------/------||
|----12/15---15--17--19-19/21~------------------------------5h7-5-7-10-9-10r-----||
|----12/15-----------------------------------------------------------------------||
---------------------------------------------------------------------||


Riff A2
Gtr 1 (clean electric)
...Забрели с тобой шутя.....       ...мы за стены дождя...
0----------------1-----------1------1--------------------0------------|
|-----1-------1--------1-------1-----------3------3---2------1---------1----------|
|-------2-------2--------2-------2-----------2------2-----------2--------2--------|
|---------2-------2--------2-------2---0--------------------------2--------2------|
|--3-----------------0------------------------------------3-----------------------|
----------------------------------------------------------------------|

Riff A1 x2
Riff A2 x1, потом

Riff A3
Gtr 1 (clean electric)
...В нашем призрачном      замке...
-1----------1------1-----------------1------------||
|-------1------1----------3------3---2-----1-------1----------||
|---------2------2----------2------2---------2-------2--------||
2------2---0------------------------2-------2-----||
|----0----------------------------------3---------------------||
--------------------------------------------------||
Chorus
Gtr 1 and Gtr 2
...Мы вошли, в этот замок из дождя...	    ...Только двое – ты и я...
------------------------------------------------------------------|
------------------------------------------------------------------|
------------------------------------------------------------------|
------------------------------------------------------------------|
||---7-7-7-7-7-7-7-7--7-----7-----7----3-----3-----3----5-----5-----5----2-----2-----2----|
||---5-5-5-5-5-5-5-5--5-5-5-5-5-5-5-5--1-1-1-1-1-1-1-1--3-3-3-3-3-3-3-3--0-0-0-0-0-0-0-0--|
p.m. . . . . . . . .    . .   . .   .    . .   . .   .    . .   . .   .    . .   . .   .


Gtr 1 and Gtr 2
...И так долго были  ________вместе___________    ...Мы спаслись...
------------------------------------------------------------------|
------------------------------------------------------------------|
------------------------------------------------------------------|
---------7-----7-----7--------------------------------------------|
|---3-----3-----3----5-5-5-5-5-5-5-5---7-----7-----7----7-----7-----7---------|
|---1-1-1-1-1-1-1-1--------------------5-5-5-5-5-5-5-5--5-5-5-5-5-5-5-5-------|
p.m.  . .   . .   .    . .   . .   .     . .   . .   .    . .   . .   .


Gtr 1 and Gtr 2
...В этом замке из дождя...       ...Только двое – ты и я...
---------------------------------------------------------------|
---------------------------------------------------------------|
---------------------------------------------------------------|
---------------------------------------------------------------|
|----7-----7-(7)--7-3-----3-----3----5-----5-----5----2-----2-----2--------|
|----5-5-5-5—(5)--5-1-1-1-1-1-1-1-1--3-3-3-3-3-3-3-3--0-0-0-0-0-0-0-0------|
p.m.   . .            . .   . .   .    . .   . .   .    . .   . .   .


Gtr 1 and Gtr 2
...В самом одиноком ____________месте____________     ты и я....
------------------------------------------------------------||
------------------------------------------------------------||
------------------------------------------------------------||
---------7-----7-----7--------------------------------------||
|---3-----3-----3----5-5-5-5-5-5-5-5--7-----7-----7----7-----7---7------||
|---1-1-1-1-1-1-1-1-------------------5-5-5-5-5-5-5-5--5-5-5-5-5-5-5----||
p.m.  . .   . .   .    . .   . .   .    . .   . .   .    . .   .   .


Verse 2
Gtr 2 lead                                              full
---------------------------------/-----------------------|
-----------------------------17-17r---17~---17-20-22~----|
||-----12h14-12-12/14~------12p14-12--14--17—19/21~------------------------------|
---------------------------------------------------------|
---------------------------------------------------------|
---------------------------------------------------------|
r – release bend
Gtr 1 Riff A1 x4

Gtr 2             *
|---17--19-20-19-19----1712-12h15p12-(12)~----||
|---17------------------------------------------||
------------------------------------||
------------------------------------||
------------------------------------||
------------------------------------||
* - опустить рычаг, взять ноту, отпустить рычаг
Riff A1 x2
Riff A2 x1
Riff A1 x2
Riff A2 x1
Riff A3 x1
Chorus  x1


Solo rhythm
Gtr 1
----------------------------------------------------------------------|
----------------------------------------------------------------------|
----------------------------------------------------------------------|
----------------------------------------------------------------------|
||--7-7-7---3-3--5-5---7-7-7-----------3-----------5---7-7-7/---3-3---5-5---3-3(3)—-2-2(2)-|
||--5-5-5---1-1--3-3---5-5-5---1-1-1-1-1---3-3-3-3-3---5-5-5/---1-1---3-3---1-1(1)—-0-0(0)-|
p.m.. .                          . . . .     . . . .


Gtr 1
---------------------------------------------------------------------------------||
---------------------------------------------------------------------------------||
---------------------------------------------------------------------------------||
---------------------------------------------------------------------------------||
|-7-7-7---3-3--5-5---7-7-7---3-3-----------5---7-7-7---3-3---5-5---3-3(3)—-2-2-2-2-2-2-2-2||
|-5-5-5---1-1--3-3---5-5-5---1-1---3-3-3-3-3---5-5-5---1-1---3-3---1-1(1)—-0-0-0-0-0-0-0-0||
p.m.                                 . . . .                                  . . . . . . . .


Solo
Gtr 2 lead                                                     full..   full
----------------------------------------/--15--/-----------|
---------------------------------------15-----15-(15)~~----|
||---14~~~--14-16-17-16-14---149--(9)~----14-16-17-16-14--------------------------|
---17------------------------------17----------------------|
-----------------------------------------------------------|
-----------------------------------------------------------|


Gtr 2                                1/2 bend        full
--------------------------/---------------/--------------------------|
|---17h18p17h18p17h18p17----19h21h22-22r--18-17~~----/---------------------------|
----------------------------------------19--19-17-16-17~-------------|
---------------------------------------------------------------------|
---------------------------------------------------------------------|
---------------------------------------------------------------------|


Gtr 2      full
/------------23-(23)---/-------------------20-----------------20-------|
|--22~~~~--22r--22-20-22-----------/---22-22-22-22--22----22-22—-22-22-22----22-22-|
-----------------------/-----------------------------------------------|
-----------------------/-----------------------------------------------|
-----------------------------------------------------------------------|
-----------------------------------------------------------------------|


Gtr 2  full
|-------/-----------------------------------------------||
|---22-22r--22-21-22-(22)~--------22-(22)~~~~-----------||
-------------------21-----------------------||
--------------------------------------------||
--------------------------------------------||
--------------------------------------------||

Chorus  x1


Gtr 2  lead                    ...Ты и я...                                   ...ТЫ И Я...
Interlude  1/2  full   1/2                               1/2
||--------/----/-------/---------------------------------/----------------------------|
||-------17r—17r--17--16r--16---------------------------/-----------------------------|
------16~-------------14-16-17-17r--17-16-1614-1412-12-10---|
--------------------------------------------------------------|
--------------------------------------------------------------|
--------------------------------------------------------------|


Gtr 2                          ...Ты и я....                           full
------------------------------------------------------------/-----------||
-----------------------------------------------------------/------------||
|--------12----12-14~----19-17--19-21-19-19p18p16—15p14p12-12p11p10---5r---5--------||
|----/14----14-----------------------------------------------------------7---7-7----||
------------------------------------------------------------------------||
------------------------------------------------------------------------||
Gtr 1 Riff A1 x4


Ending
Gtr 1 and Gtr 2
...Ты и я....             ...Ты и я....
--------------------------------------------------------|
--------------------------------------------------------|
--------------------------------------------------------|
--------------------------------------------------------|
||--7-7-7---3-3--5-5---7-7-7/-----------3-----------5---7-7-7/---3-3---5-5---|
||--5-5-5---1-1--3-3---5-5-5/---1-1-1-1-1---3-3-3-3-3---5-5-5/---1-1---3-3---|
p.m.. .                          . . . .     . . . .


Gtr 1 and Gtr 2
...Ты и я....   ...Ты и я....
-----------------------||
-----------------------||
-----------------------||
-----------------------||
|----3-3(3)—-2-2(2)----7-7--------||
|----1-1(1)—-0-0(0)----5-5--------||

Вверх

Плачет девочка с автоматом
mp3

Tuning D

Эта таблатура живет на сайте http://nemtabs.boom.ru/

Intro
Gtr 1 and Gtr 2 (clean electric)                      x4
||----0--0--x---0--0--0--x---2--2--x---4--4--4--x-----||
||*---1--1--x---1--1--1--x---3--3--x---5--5--5--x----*||
||----2--2--x---0--0--0--x---2--2--x---4--4--4--x-----||
||----2--2--x---2--2--2--x---0--0--x------------x-----||
||*---0--0--x---3--3--3--x---------------------------*||
------------------------------||
-  +  -   +  -  +  -   +  -  +   +  +  +  +
«-» - бьем вниз, «+» - соответственно, вверх...


Verse
Gtr 1 and Gtr 2
-----------------------------------------------|
-----------------------------------------------|
-----------------------------------------------|
---------------------------7-----7-----7-------|
|------2-----2-----2-------------------5-5-5-5-5-5-5-5-----|
||---000000000000--0-0-0-0-0-0-0-0---000000000000----------------------|
p.m. ............    . .   . .   .   ............    . .   . .   .


Gtr 1 and Gtr 2
---------------------------------------------------------------|
---------------------------------------------------------------|
---------------------------------------------------------------|
---------5-----5-----3-----------------------------------------|
|---5-----5-----5----3-3-3-3-3-3-3-3----------------7-----7-----7----------|
|---3-3-3-3-3-3-3-3-------------------000000000000--5-5-5-5-5-5-5-5--------|
p.m.  . .   . .   .    . .   . .   .  ............    . .   . .   .


Gtr 1 and Gtr 2
--------------------------------------|
--------------------------------------|
--------------------------------------|
---------5-----5-----3----------------|
|---5-----5-----5----3-3-3-3-3-3-3-3--------------|
|---3-3-3-3-3-3-3-3-------------------000000000000|
p.m.  . .   . .   .    . .   . .   .  ............


--------------------------------|
--------------------------------|
--------------------------------|
|--2--5--7----2--5--8--7---2—-5--7----5—-2--|
|--0--3--5----0—-3--6--5---0--3--5----3--0--|
--------------------------------|


Gtr 1 and Gtr 2
-----------------------------------------------------------|
-----------------------------------------------------------|
-----------------------------------------------------------|
---------------------------------------7-----7-----7-------|
-------2-----2-----2-------------------5-5-5-5-5-5-5-5-----|
|----000000000000--0-0-0-0-0-0-0-0---000000000000----------------------|
p.m. ............    . .   . .   .   ............    . .   . .   .


Gtr 1 and Gtr 2                                                            x2
---------------------------------------------------------------||
|*------------------------------------------------------------------------*||
---------------------------------------------------------------||
---------5-----5-----3-----------------------------------------||
|*--5-----5-----5----3-3-3-3-3-3-3-3----------------7-----7-----7---------*||
|---3-3-3-3-3-3-3-3-------------------000000000000--5-5-5-5-5-5-5-5--------||
p.m.  . .   . .   .    . .   . .   .  ............    . .   . .   .


Solo rhythm
Gtr 1
------------------------------------||
------------------------------------||
------------------------------------||
|------5--5--5--5---7--7--7--7---9--9--9--9-----||
||----7--7--7--7---3--3--3--3---5--5--5--5---7--7--7--7-----||
||----5--5--5--5--------------------------------------------||


что-то вроде Соло
Gtr 2                       x3
---------------------||
||*-------------------------*----------------||
---------------------||
||------7-5-7--10-9-7-5------|---12fb—12fb—12fb—12fb-----||
||*-------------------------*----------------||
---------------------||
p.m.    . . .       . .
fb – full bend


Outro
Gtr 1 and Gtr 2
____Плачет девочка в автомате ___перепачканное лицо __ Вся в слезах и губной памаде!
-----------------------------------------------------------------||
-----------------------------------------------------------------||
-----------------------------------------------------------------||
-----------------------------------------------------------------||
-------55555555-----------3333333------------------7--5—-7/----||
||---000000000000000000000000-----------77777777----------00000000---------5—-3—-5/----||
p.m. ........................  ........ ........  ....... ........

Вверх

Яблоки на снегу
mp3

F#5
Яблоки на снегу
Розовое на белом
E5                 А5
Что же нам с ними делать
В5                С#5 C#5 C#5
С яблоками на снегу

Припев:B5
Яблоки на снегу
F#5
Яблоки на снегу
В5           С#5   F#5
Что же нам с ними делать
С яблоками на снегу

Вверх

Яблоки на снегу (2 вариант)
mp3

DISTORSION:
4|----3---5---3---5---------8--------5-------|
5|----3---5---3---5---------8--------5-------|
6|----1---3---1---3---------6--------3-------|

3----------------------5----|
4|----5----------------------------5----|
5|----5----------------------------3----|
6|----3---------------------------------|
Яблоки на снегу, розовое на белом!

3------------3--------------|
4|----3------------------3--------------|
5|----3------------------1--------------|
6|----1---------------------------------|
Что же нам с ними делать...

3|----5---------------------------------|
4|----5----------------7----------------|
5|----3----------------5----------------|
6----------5----------------|
С яблоками на снегу!


5|--3--5-6-5----3--5-6-5----3--5-6-5----3--5-6-5--|
Й-Я-А-А-Аблоки на снегу

3---------|
4|----5---------------|
5|----5---------------|
6|----3---------------|
Яблоки на снегу

3|----5------------------------------|
4|----5------------7----5------------|
5|----3------------5----5------------|
6------5----3------------|
Что же нам с ними делать

3|----5----------------------------|
4|----5---------7-----5------------|
5|----3---------5-----5------------|
6---5-----3------------|
С яблоками на снегу

Вверх