Дети Пикассо

Aфpикa
Глубина


Как Будда
ДиКаприо

Лошади

Вверх

Aфpикa

                 C
Ecли дoлгo, дoлгo, дoлгo,
Ecли дoлгo пo тpoпинкe,
Ecли дoлгo пo дopoжкe
E                 Dm
Тoпaть, exaть и бeжaть,
G7
Тo, пoжaлyй, тo, кoнeчнo,
Тo, нaвepнo, вepнo, вepнo,
Тo, вoзмoжнo, мoжнo, мoжнo,
C
Мoжнo в Aфpикy пpийти

C                          G
Припев:	A-a, в Aфpикe peки вoт тaкoй шиpины,
Dm           E                   Am
A-a, в Aфpикe гopы вoт тaкoй вышины,
C
A-a, кpoкoдилы, бeгeмoты,
Dm
A-a, oбeзьяны, кaшaлoты,
E                  Am
A-a, и зeлeный пoпyгaй,
Dm       G7        C
A-a, и зeлeный пoпyгaй.

И кaк тoлькo, тoлькo, тoлькo,
И кaк тoлькo нa дopoжкe,
И кaк тoлькo нa тpoпинкe
Вcтpeчy я кoгo-нибyдь,
Тo тoмy, кoгo я вcтpeчy,
Дaжe звepю, вepю, вepю,
Нe зaбyдy, бyдy, бyдy,
Бyдy "Здpacьтe " гoвopить.

Пpипeв:	A-a, здpaвcтвyйтe, peки вoт тaкoй шиpины
A-a, здpaвcтвyйтe, гopы вoт тaкoй вышины
A-a, кpoкoдилы, бeгeмoты,
A-a, oбeзьяны, кaшaлoты,
A-a, и зeлeный пoпyгaй,
A-a, и зeлeный пoпyгaй.

Нo, кoнeчнo, нo, кoнeчнo,
Ecли ты тaкoй лeнивый,
Ecли ты тaкoй пyгливый,
Cиди дoмa, нe гyляй.
Ни к чeмy тeбe дopoги,
Кocoгopы, гopы, гopы,
Бyepaки, peки, paки.
Pyки, нoги бepeги

Пpипeв:	Зa-aчeм тeбe мope вoт тaкoй шиpины
Зa-aчeм тeбe нeбo вoт тaкoй вышины
A-a, кpoкoдилы, бeгeмoты,
A-a, oбeзьяны, кaшaлoты,
A-a, и зeлeный пoпyгaй,
A-a, и зeлeный пoпyгaй.

Вверх

Глубина

 Бас:

1|-----------------------------------------------|
2|-----------------------------------------------|
3|-----------------------------------------------|
4|3--3-3-6-6-6-1--1-1-3-3--3-3-6-6-6-1--1-1-3-3--|

Гитара:

e|--------------------------------------------|
B|10^12--12--10^12--11--10^12--12--10^12--11--|
G|--------------------------------------------|
D|--------------------------------------------|
A|--------------------------------------------|
E|--------------------------------------------| и т.д.

Припев1(все ноты приглушены):
Wah-Wah
e|---------------------------------|
B|10--10-10-13-13-13-8--8-8-10-10--|
G|---------------------------------|
D|---------------------------------|
A|---------------------------------|
E|---------------------------------|

Припев2 - wah-wah; distortion
A5     C5       G5      A5
e|-----------------------------|
B|-----------------------------|
G|-----------------------------|
D|-----------------------------|
A|7--7-7-10-10-10-5--5-5--7-7--|
E|5--5-5-8--8--8--3--3-3--5-5--|


Я не знаю, кто живет во мне
Я не знаю, кто лежит на темном дне
Опускаю крылья глубоко
Буду пить из неба черное молоко

Это черная глубина
Это тихая глубина
Это мягкая глубина
Это черная а...

Опускаюсь глубже на глоток
Я держу в руке искусственный цветок
Мое сердце тихий автомат
Выделяет неопределенный яд

Это черная глубина
Это тихая глубина
Это мягкая глубина
Это черная а...

Чей-то силуэт в ночной воде
Если испугаешся, то быть беде
Дети ночью убегают в лес
А с небес коллекционер чудес

Это черная глубина
Это тихая глубина
Это мягкая глубина
Это черная а...

Я не знаю, кто живет во мне
Я не знаю, кто лежит на темном дне
Опускаю крылья глубоко
Буду пить из неба черное молоко

Это черная глубина
Это тихая глубина
Это мягкая глубина
Это черная а...

Вверх

Как Будда

Em                   C                 D
Снег... брилиантовый снег... Ты лучше всех...
Em  C          Em  C
Сон это нежная смерть
D
Я так люблю на тебя смотреть
Em            D              C                 D
Мы за тёмным стеклом, каменный дом, двигайся осторожно
Em            D              C        D
Неба тысячи тонн, и устоять просто невозможно

Свет кожи белый львет
Скоро тоже изменит свой цвет
Стоп чёрный калейдоскоп
Губы ветра целуют твой лоб

Мы за тёмным стеклом, каменный дом, двигайся осторожно
Неба тысячи тонн, и устоять просто невозможно, невозможно

G  D/F#            Em
Буду улыбаться как Будда
Am        C                D
И стоять неподвижно, повторяя чуть слышно
G       D/F#           Em
Возвращаться не надо, возвращаться не надо
Am     C     D
Возвращаться не надо, не надо, не надо

Буду улыбаться как Будда
И стоять неподвижно, повторяя чуть слышно
Возвращаться не надо, возвращаться не надо
Возвращаться не надо на небо, на небо

Снег...

Вверх

ДиКаприо

А
Моей соседке Леночке плохо
Она полюбила в тонконогого лоха
Е
Леонардо ДиКаприо из Голливуда
А он о ней не знает даже вот паскуда
Н7             А
Where ever you are
Е
Mother fucker
Е
Моей соседке Светочке плохо
Она полюбила в толстоногого лоха
А
Николая Баскова из Гомелёва
А он о ней не знает ему и так клёво
Н7          А
Where ever you are
Е
Mother fucker
Mother fucker

После 2 куплета идет “рок-н-ролльный квадрат”
1|------------|--------------|--------------|
2|------1-----|--------------|---1-3-4-3-1--|
3|---0-2—2-0--|---0-2-3-2-0--|--2---------2-|
4|--2-------2-|--2---------2-|-3------------|
5|-3----------|-3------------|--------------|
6|------------|--------------|--------------|

1|------------|--------------|-------------|
2|------1-----|--------------|------1------|
3|---0-2-2-0--|--------------|---0-2--2----|
4|--2-------2-|---0-2-3-2-0--|--2------2---|
5|-3----------|--2---------2-|-3---------3-|
6|------------|-3------------|-------------|

Моей соседке Зиночке плохо
Она полюбила в тонконогого лоха
Леонардо ДиКаприо из Голливуда
А он о ней не знает ему и так круто.
Where ever you are
Where ever you are
Where ever you are
Mother fucker

Вверх

Лошади

Em
Лошади стучали по асфальту
D
Шли дожди и падали до вечера
C                          Gm(возможно G)
В маленькой квартирке мы читалии,
D  Em
В сумеркаах откладывали книги,
А потом готовили обедать
D
В жёлтом, странном отблеске заката
С
В полутьме молились,
Спать не ложились,
Gm
Просыпались ночью
D
Говорить


Поезда стучали нам составами
Газовые отблески молчали
Тихо в бездну звуки обрывались
Будущие годы открывались
Em                                         D
Лошади стучали по асфальту *2
C                        Gm   D
Лошади дрожали по асфальту *2

*проигрышь Em D C Gm D*

А потом, в слезах мы засыпали
Падали в колодцы золотые,
Может быть, соединялись
Проходили миллионы лет
Утро заставало нас в грядущем
Возвращаться было слишком поздно
Оставляя в небе наши души
Просыпались с мертвыми глазами

Лошади стучали по асфальту
Лошади плясали по асфальту
Лошади летали по асфальту
Лошади дрожали по асфальту

*проигрышь Em D C Gm D*

Вновь казался странным и подземным
Белый мир, где снова дождик шел,
Колокол звонил в тумане бледном,
И совсем напротив садик цвел.

Вверх