Народные

В Семь Сорок
В траве сидел кузнечик
Городок
Каким ты был
Клен ты мой опавший
Любо, братцы, любо
Ой, да не вечер (Донская баллада)
Ой, у вишневому саду
Ой, цветет калина
По диким степям Забайкалья
При долинi кущ калини

Сотни тысячи солдат
Стены
Червона рута
Чёрный ворон
Чом ти не прийшов
Шаланды полные кефали
Эй, ухнем

Вверх

В Семь Сорок

Слова и музыка неизвестного автора
E m
В семь-сорок он приедет,
В семь-сорок он приедет,
Am6         A#dim      B7
Наш старый,наш славный,наш агицен паровоз.
Em
Везет с собой вагоны,
Везет с собой вагоны,
Am6        A#dim  H7    Em  D7
Набитые людями,словно сеном воз.
Припев:
G         Cm        G         Cm           G
Он выйдет из вагона и двинет вдоль перрона,
Dm6 E7        Am             Cm6
На голове его роскошный котелок.
D7          G
В больших глазах зеленых на восток
F   Em    (D7)
Горит одесский огонек.

Пусть он не из Одессы,
Пусть он не из Одессы-
Фонтаны и Пересыпь ждут его на двор.
В семь-сорок он приедет,
В семь-сорок он приедет,
Наш старый добрый фрей,то есть Теодор.
Припев.

Семь-сорок наступало,
Часами все отбило,
А поезд не приехал-нет его и все,но вот -
Мы все равно дождемся,мы все равно дождемся,
Даже если опоздает он на целый год

Припев.

Вверх

В траве сидел кузнечик

C^:    I  II  III     Asus2  I  II  III
1|-X-|---|---|        1|---|---|---|
2|-X-|---|---|        2|---|---|---|
3|---|---|---|        3|---|-X-|---|
4|---|-X-|---|        4|---|-X-|---|
5|---|---|-X-|        5|---|---|---|
6|---|---|-X-|        6|---|---|---|


Ритм:
|-Am------|--E------|-E7------|-Am------|
|-Am------|--E------|-E7------|-Am------|
|-G----G7-|-C----C^-|-E----E7-|Am--Asus2|
|-G----G7-|-C----C^-|-E----E7-|Am--Asus2|

Main Guitar:
1|-5-|-0-5-0-5-|-4-4---4-|-0-4-0-4-|-5-5---5-|

1|-0-5-0-5-|-4-4---4-|-0-4-0-4-|-5-5---5-|

1|-7-777-7-|-8-888-8-|-8-7-5-4-|-5-5---5-|

1|-7-777-7-|-8-888-8-|-8-7-5-4-|-5-------|

Бас:
6|-2-4-|-5---7-5-|-4---0-2-|-4---5-4-|-5---2-4-|

6|-5---7-5-|-4---0-2-|-4---5-4-|-5-----5-|

5|-------5-|-3-3---3-|-2-2-----|---------|
6|-7-7-----|---------|-------7-|-5-----5-|

5|-------5-|-3-3---3-|-2-2-----|---------|
6|-7-7-----|---------|-------4-|-5-------|

Соло:
1|----|-12-----11---|-10----------|-10-----12---|-------------|
2|-10-|-----10---10-|--9--------9-|-----9-----9-|-10-------10-|

1|-12-----11---|-10----------|-10-----12---|-------------|
2|-----10----10|--9--------9-|-----9-----9-|-10----10-12-|

1|-12----12----|-------------|-12-12-12-10-|-12----------|
2|----------12-|-13--------9-|-----------9-|-10----10-12-|

1|-12----12----|-------------|-12-12-12-10-|-------------|
2|----------12-|-13--------9-|-----------9-|-10----------|

Вверх

Городок

Em                    H7(2лад)        Em
Целый день стирает             прачка,
G(3)                   D7(5)      G
Муж пошел  за во-   д      кой.
E7           Am   H7(1)  G7(3)
На крыльце сидит собачка
F#                     F7
С маленькой бородкой.

Целый день она таращит
Умные глазенки,
Если дома кто заплачет —
Заскулит в сторонке.

А кому сегодня плакать
В городе Тарусе
Есть кому в Тарусе плакать —
Девочке Марусе.

Опротивели Марусе
Петухи да гуси.
Сколько ходит их в Тарусе,
Господи Исусе

«Кабы мне такие перья
Да такие крылья
Улетела б прямо в дверь я,
Бросилась в ковыль я

Чтоб глаза мои на свете
Больше не глядели,
Петухи да гуси эти
Больше не галдели »

Ой, как худо жить Марусе
В городе Тарусе
Петухи одни да гуси.
Господи Исусе


H7(2)   H7(1)     D7(5)      G7(3)        F#        F7
E--2--------2----------5----------3----------2----------2
B--4--------0----------7----------5----------5----------4
G--2--------2----------5----------3----------3----------2
D--4--------1----------7----------5----------2----------4
A--2--------2----------5----------3----------4----------2
E--2--------0----------5----------3----------2----------2

Вверх

Каким ты был

|-----------------------1------------|---------------5-------3---1-----|
|---3---5---1--------------3---5-----|-------1---5-------5-----------3-|
|--------------2-----2-------------2-|---2-----------------------------|
|------------------------------0-----|---------------3---------------0-|
|--------------0---------------------|-------------------3-------------|
|------------------------------------|---------------------------------|



|-----5---3---1---1-----------------------3--|----3---5-----------3--------|
|-3--------------------5---3---1-------3-----|-3----------5---3-------5----|
|----------------------------------2------0--|---------------------------2-|
|--------------------------------------0-----|------------0----------------|
|--------------------------------------------|---------------------------0-|
|-------------0------------------------------|-----------------------------|

Em        Am    C     G
Каким ты был, таким остался,
C            E
Орел степной, казак лихой ..
E7      Dm     G7          C
Зачем, зачем ты снова повстречался,
Dm    E      Am
Зачем нарушил мой покой

Зачем опять в своих утратах
Меня хотел ты обвинить
В одном, в одном я только виновата,
Что нету сил тебя забыть.

Свою судьбу с твоей судьбою
Пускай связать я не могла,
Но я жила, жила одним тобою,
Я всю войну тебя ждала.

Ждала, когда наступит сроки,
Когда вернёшься ты домой…
И горьки мне, горьки твои упреки,
Горячий мой, упрямый мой

Твоя печаль, твоя обида,
Твоя тревога ни к чему:
Смотри, смотри, душа моя открыта,
Тебе открыта одному.

Но ты взглянуть не догадался,
Умчался вдаль, казак лихой…
Каким ты был, Таким ты и остался,
Но ты и дорог мне такой.

Вверх



Клен ты мой опавший

E-7---------3-2-0---------5-------5---------2-0---3-------2-------|
B-----0-----------1-----------5-------3---------3-----0-------0---|
G---0---0-------------2-----5---5---5---5-----------0---0---2---2-|
D---------2---------2---2---------0-------4-----------------------|
A-----------------0---------------------------------------2-------|
E-0-----------------------------------------------3---------------|

E-3---------3-2-0---------2---0-------------------2-------0-------|
B-----0-----------1---------1---1-----0-0-2---4-------0---0-------|
G---0---0-------------2-----2---2---2-------2---2---0---0-0-------|
D---------2---------2---2-----------1-------1---4---------2-------|
A-----------------0---------------2-------------------------------|
E-0-----------------------------------------------0---------------|


Клен ты мой опавший, клен заледенелый,
Что стоишь нагнувшись под метелью белой

Или что увидел  Или что услышал
Словно за деревню погулять ты вышел.

И, как пьяный сторож, выйдя на дорогу,
Утонул в сугробе, приморозил ногу.

Ах, и сам я нынче чтой-то стал нестойкий,
Не дойду до дома с дружеской попойки.

Там вон встретил вербу, там сосну приметил,
Распевал им песни под метель о лете.

Сам себе казался я таким же кленом,
Только не опавшим, а вовсю зеленым.

И, утратив скромность, одуревши в доску,
Как жену чужую, обнимал березку.

Вверх


Любо, братцы, любо
Am             Dm    E         Am
Как на грозный Терек выгнали казаки,
G                     C         E
Выгнали казаки сорок тысяч лошадей.
Am           Dm   G           C
И покрылось поле, и покрылся берег
G                         C         E
Сотнями порубленных, постреляных людей.

Am           Dm    G           C
Любо,братцы, любо, любо братцы жить.
G		            C         E
С нашим атаманом не приходится тужить.
Am          Dm     G           C
Любо,братцы, любо, любо братцы жить.
G                        C         E
С нашим атаманом не приходится тужить.

Атаман наш знает, кого выбирает-
Эскадрон по коням  да забыли про меня.
Им осталась воля да казачья доля,
Мне досталась пыльная, горючая земля.

А первАя пуля, а первАя пуля,
А первАя пуля в ногу ранила коня.
А вторая пуля, а вторая пуля,
В сердце ранила меня.

Жинка погорюет, выйдет за другого,
За мого товарища, забудет про меня.
Жалко только волюшки во широком полюшке,
Жалко сабли острой да буланого коня.
Вверх
Ой, да не вечер (Донская баллада)
Жанна Бичевская

Hm                      F#
Ой, да не вечер, то не вечер
Hm         A     D   A
Мне малым-мало спалось
D                A  F#
Мне малым-мало спалось
Hm          C     F   Hm  A
Ой, да во сне привиделось
D                A  F#
Мне малым-мало спалось
Hm          C     F#  Hm
Ой, да во сне привиделось

Мне во сне привиделось,
Будто конь мой вороной
Разгулялся, разыгрался,
Расплясался подо мной
Разгулялся, разыгрался,
Расплясался подо мной

Ой, да налетели ветры злые
Да с восточной стороны
И сорвали черну шапку
С моей буйной головы
И сорвали черну шапку
С моей буйной головы

А есаул догадлив был
Он смог сон мой разгадать
Ой, пропадет - он говорил -
Твоя буйна голова
Ой, пропадет - он говорил -
Твоя буйна голова

Dm                      A
Ой, да не вечер, то не вечер
Dm           C     F  C
Мне малым-мало спалось
F                C  A
Мне малым-мало спалось
Dm          Gm    A   Dm  C
Ой, да во сне привиделось
F                C  A
Мне малым-мало спалось
Dm          Gm    A   Dm
Ой, да во сне привиделось
Вверх
 

 Ой, у вишневому саду
Am
Ой у вишневому саду,
Dm		  Am
Там соловейко щебетав.
Dm		E7
Додому я просилася,
Am
А ти мене все не пускав.

Ти милий мій, а я твоя,
Дивись, яка зійшла зоря,
Проспиться матінка моя -
Буде питать, де була я.

А ти їй дай такий одвіт:
Яка чудова майська ніч.
Весна іде, красу несе,
А тій красі радіє все.

Доню моя, не в тому річ,
Де ти гуляла цілу ніч, -
Чому розплетена коса,
А на очах бринить сльоза

Коса моя розплетена,
Її подруга розплела,
А на очах бринить сльоза,
Бо з милим попрощалась я.

Мамо моя, ти вже стара,
А я щаслива й молода,
Я жити хочу, я люблю
Мамо, не лай дочку свою.
Вверх
 Ой, цветет калина

(И.Дунаевский/М.Исаковский)

Em     H7/F#  Em/G Am/C   Em/H  H7   Em   H7
Ой, цветет кали    на    в поле у ручья
Em    H7/F#  Em/G  Am/C  G/D  D7  G
Парня моло   до    го    полюбила я
E7         Am  Am/D    D7 G
Парня полюбила на свою беду
H7/F#  H7   Em Am      Em/H   H7   Em
Не могу открыть  ся - слов я не найду
amp;<жен.хорamp;>
E7             Am      Em/H   H7   Em
Не могу открыть  ся - слов я не найду
Он живет - не знает ничего о том
Что одна дивчина думает о нем
У ручья с калины облетает цвет
А любовь девичья не проходит, нет
А любовь девичья с каждым днем сильней
Как же мне решиться рассказать о ней
Я хожу - не смею волю дать словам
Милый мой, хороший, догадайся сам
Вверх
 По диким степям Забайкалья 
G	           D7
По диким степям Забайкалья,
G
Где золото роют в горах,
C
Бродяга, судьбу проклиная,
G	   D7	     G
Тащился с сумой на плечах.

Идёт он густою тайгою,
Где пташки одни лишь поют,
Котёл его сбоку тревожит,
Сухие коты ноги бьют.

На нём рубашонка худая,
Со множеством разных заплат,
Шапчонка на нём арестанта
И серый тюремный халат.

Бежал из тюрьмы тёмной ночью,
В тюрьме он за правду страдал. -
Идти дальше нет больше мочи,
Пред ним расстилался Байкал.

Бродяга к Байкалу подходит.
Рыбацкую лодку берёт
И грустную песню заводит -
Про родину что-то поёт:

„Оставил жену молодую
И малых оставил детей,
Теперь я иду наудачу,
Бог  знает, увижусь ли с ней ”

Бродяга Байкал переехал,
Навстречу родимая мать,
„Ах, здравствуй, ах, здравствуй, мамаша,
Здоров ли отец, хочу знать”

„Отец твой давно уж в могиле,
Сырою землёю зарыт,
А брат твой давно уж в Сибири,
Давно кандалами гремит.

Пойдём же, пойдём, мой сыночек,
Пойдём же в курень наш родной,
Жена там по мужу скучает
И плачут детишки гурьбой”.



Вверх
 
 При долинi кущ калини

Am         Fm
При долинi кущ калини
Dm      G    C        A7        Dm
Нахилився до води (нахилився до води),
Dm  G     C    Am
Ти скажи менi калино,
Dm   E       Am         A7      Dm
Як попала ти сюди (як попала ти сюди),
Dm  G     C    Am
Ти скажи менi калино,
Dm   E        Am
Як попала ти сюди.

Якось ранньою весною
Хлопець бравий прискакав (хлопець бравий прискакав),
Милувався довго мною,
А тодi з собою взяв (а тодi з собою взяв),
Милувався довго мною,
А тодi з собою взяв.

Вiн хотiв мене калину
Посадить в своiм саду (посадить в своiм саду),
Не довiз i в полi кинув,
Думав, що я пропаду (думав, що я пропаду),
Не довiз i в полi кинув,
Думав, що я пропаду.

Я за землю ухопилась,
Стала на ноги своi (стала на ноги своi),
I навiки залишилась,
Де весна i солов'i (де весна i солов'i),
I навiки залишилась,
Де весна i солов'i. 
Вверх

Сотни тысячи солдат

Игрыть в стиле Hard Core

D2         C2
Сотни тысячи солдат
Am#        Am
Убегают на пожар,
D2         C2
Только я уже не рад
Am#          C2
Сердце бьется как на бат.
D2         C2
Вечер тихий наступил,
Am#        Am
Нелюдимый, жуткий он.
D2         C2
Он меня вчера убил
Am#           Am
Как три буквы на забо-от...

Припев:
Am#            F2
Дрожи давай всем телом,
Am             D2
Вспомни: куда летела
Am#                      F2
Та пуля, что пробила мой живо-от...
Am#          F2
Дойти думал, сумею,
Am          D2
Дурацкая затея
Am#                        F2
Вот так вот блин кончается по жизни срам

Много, много тон воды
Вышло из под берегов
Не ходи туда, не жди
Выбирайся из оков.
Ранним утром спозаранку
Он прицелился в висок
Как поднял он сваю пушку
И нажал он на куро-ок...

Припев
Проигрыш
Припев

Аккорды:
(6-1)
D2:5 5 7 7 5 5
C2:3 3 5 5 3 3
Am#:6 8 8 6 6 6
Am:5 7 7 5 5 5
F2:8 10 10 8 8 8
Вверх
Стены
Em C   Am       D
Я    закрою шторами окно,
Em C   Am       D
Чтобы не видеть больше ничего
Em C   Am       D
Я так устал мне всё равно.

Припев:  Em       C
Стены моя крепость
Am       D
А я за стенами сижу-У
Em       C
Стены моя крепость


Am       D
Покой за ними нахожу.
Мир, ты так безжалостен ко мне.
Совсем другим ты представлялся мне,
Мир, дай пощады, пощади, пойдём со мною, отдохни...

Припев.


День ты мною прожит как всегда,
В котором бесконечные дела,
Как тень, преследуют меня.


Припев.

Смерть зачем забрала ты любовь мою
Жить без которой не могу
Закройте дверь я ухожу.

Припев.

Пусть, я вам чего-то не писал,
Пусть не допел и не сказал,
Но вы простите я устал, я устал, я устал...

Припев.


Перебор:


Em                 C                 Am                 D
1 ---------0----     -----------0--     ----------0---     ----------2---
2 ---------0----     -----------1--     ----------1---     ----------3---
3 ------0-------     --------0-----     -------2------     -------2------
4 -0-2----------     ---0----------     --0-----------     ----0---------
5 --------------     -----3--------     ----0---------     --0-----------
6 --------------     --------------     --------------     --------------
Вверх

 Червона рута

Am                                 E
Ти признайся мені звідки в тебе ці чари,
Am
Я без тебе всі дні у полоні печалі.
C                   G
Може десь у лісах ти чар-зілля збирала,
E             Am
Сонце-руту знайшла і мене зчарувала.

Приспів:
Dm      G         C       Am         Dm    E            Am  G C
Червону руту не шукай вечорами, ти у мене єдина, тільки ти, повір.
Dm      G         C       Am         Dm   E   Am    C Dm E
Бо твоя врода-то є чистая вода, то є бистрая вода синіх гір.
E             Am                  E
II.Бачу я тебе в снах, у дібровах зелених,
Am
По забутих стежках ти приходиш до мене.
C                 G
Та не треба мені нести квітку надії,
E              Am
Бо давно уже ти увійшла в мої мрії.

Приспів-2рази.
Вверх
 Чёрный ворон

Dm  B      Dm
Черный ворон, черный ворон
Gm Dm  D7  Gm
Что ты вьешься надо мной
F      B   C7   Dm
Ты добычи не дождешься
A7     Dm
Черный ворон, я не твой

Что ты когти запускаешь
Над моею головой
Иль добычу чаешь
Черный ворон я не твой

Завяжу смертельну рану
Подаренным мне платком
А потом с тобой я буду
Говорить лишь об одном

Полети в мою сторонку
Скажи матушке моей
Ты скажи моей любезной
Что за Родину я пал

Отнеси платок кровавый
Милой любушке моей
Ты скажи она свободна
Я женился на другой

Взял невесту тиху, скромну
В чистом поле под кустом
Обвенчальна была сваха
Сабля острая моя

Калена стрела венчала
Среди битвы роковой
Вижу смерть моя приходит
Черный ворон весь я твой

Черный ворон, черный ворон
Что ты вьешься надо мной
Ты добычи не дождешься

Вверх
 Чом ти не прийшов


Am
Чом ти не прийшов, як місяць зійшов,
C	    G C		A
Я ж тебе чекала
Dm		Am
Чи коня не мав, чи стежки не знав,
Dm	      Am
Мати не пускала

- І коня я мав, і стежку я знав,
І мати пускала,
Найменша сестра, бодай не зросла, -
Сідельце сховала.

А старша сестра сідельце знайшла,
Коня осідлала.
- Ой їдь, братику, до дівчиноньки,
Котра тебе ждала.

- Тече річенька невеличенька,
Схочу - перескочу.
Ой оддай мене, моя матінко,
За кого я хочу.


Вверх

Шаланды полные кефали

--0-----0-0-----0----|--0----------------
------1-----3-1---3--|------0-3-3-1-0-5--
----2----------------|----1--------------

--0---0-1-0-----0----|----3-1-0----------
----4-------1-----3--|--0-------0-3-1----
--------------2------|----------------2--


Am           Dm    E
Шаланды полные кефали
Am  A7
В Одессy Kостя пpиводил
Dm    E
И все бендюжники вставали,
Am
Kогда в пивнyю он входил.

Синеет моpе за бyльваpом,
Kаштан над гоpодом цветет,
Hаш Kонстантин беpет гитаpy
И тихим голосом поет:

Пpипев:
C                      G
Я вам не скажy за всю Одессy,
G                  C A7
Вся Одесса очень велика-а,
Dm                  Am
Hо и Молдованка и Пеpесыпь
C        G       C
Обожают Kостю моpяка.

Рыбачка Соня как-то в мае,
Пpичалив к беpегy баpкас,
Емy сказала: Все вас знают,
А я так вижy в пеpвый pаз.

В ответ, достав Kозбека пачкy,
Сказал ей Kостя с холодком:
Вы интеpесная чyдачка,
Hо дело видите ли в том

Пpипев

Фонтан чеpемyхой покpылся,
Бyльваp Фpанцyзский весь в цветy
Hаш Kостя кажется влюбился -
Kpичали гpyзчики в поpтy.

Об этой новости неделю
Везде шyмели pыбаки,
Hа свадьбy гpyзчики надели
Со стpашным скpипом башмаки.

Пpипев:
Я вам не скажy за всю Одессy,
Вся Одесса очень велика,
День и ночь гyляла вся Пеpесыпь
Hа веселой свадьбе моpякa
Вверх
 Эй, ухнем

Am   DmAm      DmAm   F DmC     Dm
e------------------------1-0-1-0----
B-1---3---0-1---3------1-2-1-----3--
G-2-2-2-2---2-2-2-2----2-3-0-----2--
D-2---0-2---2---0-2----3---------0--
A-------0---------0-----------------
E-----------------------------------
Эй, ухнем  Эй, ухнем  Ещё ра-а-аз.


Am   DmAm      DmAm
e--------------------
B-1---3---0-1---3----
G-2-2-2-2---2-2-2-2--
D-2---0-2---2---0-2--
A-------0---------0--
E--------------------
Эй, ухнем  Эй, ухнем 


Вверх