Зинчук Виктор

El Condor Pasa (Полет Орла)
Mix №1
Scherzo H-minor
Зеленые Рукава
Из нотной тетради Магдалены Бах
Крестный Отец
Лолита
Лолита (2 вариант)
Марш Из Оперы «Аида»
Полет кондора
Полет кондора (2 вариант)
Придорожное кафе
Вверх

El Condor Pasa (Полет Орла)

E---------2-3-2-3-5-5/7~-10-10-7~-10/12/10-7~-7-5-3-5-3-0-
B-0-5-4-5-------------------------------------------------
G---------------------------------------------------------
D---------------------------------------------------------
A---------------------------------------------------------
E---------------------------------------------------------

E---------2-3-2-3-5-5/7~-10-10-7~--7-10-12-10-12-10-7~----
B-0-5-4-5-------------------------------------------------
G---------------------------------------------------------
D---------------------------------------------------------
A---------------------------------------------------------
E---------------------------------------------------------

--7-5-3-5-3-0-
--------------
--------------
--------------
--------------
--------------

E--7-12--10-12-10-12-10-12--12-15-12-10--10-12-10-7--
B----------------------------------------------------
G----------------------------------------------------
D----------------------------------------------------
A----------------------------------------------------
E----------------------------------------------------
два раза

--7-5-3-5-3-0-
--------------
--------------
--------------
--------------
--------------

Вверх

Mix №1

s-(staccato)
s  s  s
E||---------------------
B||-12-10-12------------
G||----------11-9Н11----
D||------------------9--      2 раза
A||---------------------
D||---------------------

E||----9-10--9h10-9-9--9-7h9-7-7-7-5h7-5-5- 7- при повторе 9-
B||-12------------------------------------- --              -
G||---------------------------------------- --              -
D||---------------------------------------- --
A||---------------------------------------- --
D||---------------------------------------- --

Это два раза

s  s  s
E||--14-12-14--------------
B||-----------14-12h14-----
G||--------------------11--        2 раза
D||------------------------
A||------------------------
D||------------------------

E||--14-16-17--16h17--16—16-16-14h16—14-14-14-12h14-12-12-14--
B||-----------------------------------------------------------
G||-----------------------------------------------------------
D||-----------------------------------------------------------
A||-----------------------------------------------------------
D||-----------------------------------------------------------

Вверх

Scherzo H-minor

E||--7--10-7----------------------|--------------------------------|
B||----------7--12-7--------------|--------------------------------|
G||------------------7--11-7------|----4-7-4-6-4-6-4---6-9-6-7-----|
D||--------------------------9----|--4---------------7----------9--|
A||-------------------------------|--------------------------------|
E||-------------------------------|--------------------------------|



--7--10-7----------------------|----------------7--------------|
----------7--12-7--------------|-------------------------------|
------------------7--11-7------|--7-6-7--7-6-7-----7--7-9-7-6--|
--------------------------9----|-------------------------------|
-------------------------------|-------------------------------|
-------------------------------|-------------------------------|



----------------10--------------|---------------------------------------|
--7-6-7--7-6-7------7--7-9-7-6--|----7-10-7-9-7-9-7----9-12-9-10-9-10-9-|
--------------------------------|--6----------------10------------------|
--------------------------------|---------------------------------------|
--------------------------------|---------------------------------------|
--------------------------------|---------------------------------------|



-----------------------------9----------10-------|
-----10----------12------------------------------|
--11----11-10-11----11-10-11---11-10-11----11-10-|
-------------------------------------------------|
-------------------------------------------------|
-------------------------------------------------|



-----10-9----9--------------------------|--7-7-10-7------------------------|
----------12---10-9----10--9-10-9-------|-----------7-7-12-7---------------|
--11----------------11------------11----|--------------------7-7-11-7------|
----------------------------------------|-----------------------------9----|
----------------------------------------|----------------------------------|
----------------------------------------|----------------------------------|



--------------------------------|--7--10-9-7---------------------------|
--------------------------------|------------7--12-10-7----------------|
----4-7-4-6-4-6-4---6-9-6-7-----|-----------------------7--11-9-7------|
--4---------------7----------9--|---------------------------------9----|
--------------------------------|--------------------------------------|
--------------------------------|--------------------------------------|



----------------7--------------|----------------10--------------|
-------------------------------|--7-6-7--7-6-7------7--7-9-7-6--|
--7-6-7--7-6-7-----7--7-9-7-6--|--------------------------------|
-------------------------------|--------------------------------|
-------------------------------|--------------------------------|
-------------------------------|--------------------------------|



---------------------------------------|
----7-10-7-9-7-9-7----9-12-9-10-9-10-9-|
--6----------------10------------------|
---------------------------------------|
---------------------------------------|
---------------------------------------|



-----------------------------9----------10-------|
-----10----------12------------------------------|
--11----11-10-11----11-10-11---11-10-11----11-10-|
-------------------------------------------------|
-------------------------------------------------|
-------------------------------------------------|



-----10-9----9--------------------------|-------------------------------|
----------12---10-9----10--9-10-9-------|--7--10-7----------------------|
--11----------------11------------11----|----------6--11-6--------------|
----------------------------------------|------------------7--11-7------|
----------------------------------------|--------------------------9----|
----------------------------------------|-------------------------------|



---------------5------------|-------------------------------|
--------5--0-7----8-7-8--5--|--8--12-8----------------------|
--5--4----------------------|----------9--12-9-----9-6------|
----------------------------|------------------11------7----|
----------------------------|-------------------------------|
----------------------------|-------------------------------|



----------------------------------|--------------------5-------7-----|
------7-------------5-8-5-7-5-7-5-|----7-------8---------------------|
----7---7-9-7-9-7-6---------------|--7---7-6-7---7-6-7---7-6-7---7-6-|
--7-------------------------------|----------------------------------|
----------------------------------|----------------------------------|
----------------------------------|----------------------------------|
[p.m.....]


----7-5---5---------------------|----------------10--------------|
--------8---7-5---7--5-7-5------|--7-5-7--7-5-7------7--7-8-7-5--|
--7-------------7----------7----|--------------------------------|
--------------------------------|--------------------------------|
--------------------------------|--------------------------------|
--------------------------------|--------------------------------|



----------------9---------------|--7--10-7---------7-------------|
--------------------------------|----------10-8------10-8-7------|
--9-7-9--9-7-9-----9--9-11-9-7--|---------------------------9----|
--------------------------------|--------------------------------|
--------------------------------|--------------------------------|
--------------------------------|--------------------------------|



-----------------------------------|---------------------------2-|
--8-7-5-----5-8-5------------------|----------2-5-3-2-3--2-3-5---|
--------7-5-------5-4-5-4-3--------|-----4--3--------------------|
-----------------------------4--5--|--4--------------------------|
-----------------------------------|-----------------------------|
-----------------------------------|-----------------------------|



-------7--------------------|
--3/7-----7--5--------------|
---------------7-6-7-6-4----|
----------------------------|
----------------------------|
----------------------------|

Вверх

Зеленые Рукава

E---------------------------------------------
H--------5-6-5--------------------------------
G--2-5-7-------7-4-0--2-4-5-2-2--1--2-4-1-----
D-----------------------------------------2---
A---------------------------------------------
E---------------------------------------------

E---------------------------------------------
H--------5-6-5--------------------------------
G--2-5-7-------7-4-0--2-4-5-4-2-1---1-2-2-2---
D---------------------------------4-----------
A---------------------------------------------
E---------------------------------------------

Я не уверен, но возможно, (может быть) В. Зинчук играет это произведение на пол тона
выше. Тогда это будет выглядеть следующим образом...


E--------------------------------------------
H---------6-7-6------------------------------
G--3-6-8--------8-5-1--3-5-6-3-3--2-3-5-2----
D-----------------------------------------3--
A--------------------------------------------
E--------------------------------------------

E--------------------------------------------
H---------6-7-6------------------------------
G--3-6-8--------8-5-1--3-5-6-5-3-2-0-2-3-3-3-
D--------------------------------------------
A--------------------------------------------
E--------------------------------------------

Вверх

Из нотной тетради Магдалены Бах

   1 part:
E||-------------------------------------------------------|
H||---7---7p5---7~~-12------------------------------------|
G||*--------------------12-/-9--7-6-7-6h7p6--4-/2-2-------|
D||*------------------------------------------------------|
A||-------------------------------------------------------|
E||-------------------------------------------------------|


E|------------------------------------------------------------|
H|--10~~----------5-4-/10-8-8~~-------3-2-/8-7-7~~--9-10/3-3--|
G|-------11--5-4---------------9/4-2-------------------------|
D|------------------------------------------------------------|
A|------------------------------------------------------------|
E|------------------------------------------------------------|

E|------------------------------------------------------||
H|--5-7-7-5--3-2-0--0h2-3-3~~-2-0-----------------------||
G|--------------------------------2~~------------------*||
D|-----------------------------------------------------*||
A|------------------------------------------------------||
E|------------------------------------------------------||

2 part:
E||-------------------5~~-----------7~~-5-3-2-3p2-3~~----|
H||------------------------------------------------------|
G||*---6~~-7-6-4-6-2-----------5--4----------------------|
D||*-----------------------------------------------------|
A||------------------------------------------------------|
E||------------------------------------------------------|

E|---------------------------------------------------------|
H|--7-5----------------------7-8~~-7-----------------------|
G|------7-6-4--3-4-/6~-7-/9~---------9-7-6-4--6-7-9-7~~----|
D|---------------------------------------------------------|
A|---------------------------------------------------------|
E|---------------------------------------------------------|


E|--------------------7~~--------------------------------|
H|--------------7---------10-9-7--10---------------------|
G|--4h6p4----7~~--9-7-----------9--------6-7-6h7p6-------|
D|-----------------------------------7-9-----------------|
A|-------------------------------------------------------|
E|-------------------------------------------------------|

E|-------------------------------------------------------|
H|--------------7------~~8-7-7~~-10-8-8~~----------------|
G|---4-/-2---7~~--9-9~~----------------------------------|
D|-------------------------------------------------------|
A|-------------------------------------------------------|
E|-------------------------------------------------------|


E|----------------------------------------8-8-7~~--------|
H|------------8-8---7~~--7-8-10-/-3--7-10----------------|
G|------6-/-9-----9--------------------------------------|
D|--7~~--------------------------------------------------|
A|-------------------------------------------------------|
E|-------------------------------------------------------|

E|------------------0-2-3-3-2--------------------------------||
H|--3-2-5-/8-8~~--------------5-3p2---2-2h3p2h3p2---2-3--3---||
G|--------------4-2-----------------4-------------4-----2---*||
D|-----------------------------------------------------0----*||
A|-----------------------------------------------------------||
E|-----------------------------------------------------------||

Вверх

Крестный Отец

E||---0-5-8-7-5-8-5-7-5-*1-3-0-*-0-------
B||---------------------*------*---4-3---
G||---------------------*------*---------
D||---------------------*------*---------
A||---------------------*------*---------
E||---------------------*------*---------

E||-----1-5-7----1-4-5------3-1-0-3-1-1-0-0-------
B||---3--------3----------1-----------------------
G||---------------------2-------------------1-2---
D||-----------------------------------------------
A||-----------------------------------------------
E||-----------------------------------------------

E||--5-5-4--4-4--4--7-5-3-------------------------
B||-----------------------6-5---5-8-5-3--3-6-3-5--
G||-----------------------------------------------
D||-----------------------------------------------
A||-----------------------------------------------
E||-----------------------------------------------

Вверх

Лолита

Вступление:  (Аккомпанемент играет что-то вроде аккорда Am в VII позиции,
тех кто не знает, он выглядит так:

E|-8------(помутите что нибудь с арпеджио, и всё будет классно)
H|-10------------------------------------------------------|
G|-9-------------------------------------------------------|
D|-7-------------------------------------------------------|
A|-x-------------------------------------------------------|
E|-x-------------------------------------------------------|


E|--0-0-5-7-8-5--10-----|--10-10-8-7-5---------------------|
H|------------------6---|--------------8-6-5---------------|
G|----------------------|--------------------5-------------|
D|----------------------|----------------------------------|
A|----------------------|----------------------------------|
E|----------------------|----------------------------------|

tremolo
E|--8-8-7-5-------------|---------------------------------||
H|----------8-6-5-------|---5-5-5-5-5-5---5-5-5-5-5-5-5---||
G|----------------7-4---|---------------------------------||
D|----------------------|---------------------------------||
A|----------------------|---------------------------------||
E|----------------------|---------------------------------||

И поехали...

E||--0-0-5-7-8-5-/10----|--10-10-8-7-5---------------------|
H||------------------6--|--------------8-6-5h6p5-----------|
G||-*-------------------|------------------------5---------|
D||-*-------------------|----------------------------------|
A||---------------------|----------------------------------|
E||---------------------|----------------------------------|


E|--8-8-7-5-------------|--7-7-5--------------------------||
H|----------8-6-5-------|--------8-6-5--------------------||
G|----------------7-4---|--------------5-7--------------*-||
D|----------------------|------------------7------------*-||
A|----------------------|---------------------------------||
E|----------------------|---------------------------------||


E||--5-5-5--------------|--5-5-8-7-5-0---------------------|
H||--------8-6---5-6-8--|--------------1-------------------|
G||-*----------7--------|-------------(5)------------------|
D||-*-------------------|----------------------------------|
A||---------------------|----------------------------------|
E||---------------------|----------------------------------|


E|-0-5--5-5-5--5-5-4-5--|--7---0-0-1-0h1p0----------------||
H|----------------------|------------------3-1-0----------||
G|----------------------|------------------------2-2----*-||
D|----------------------|-------------------------------*-||
A|----------------------|---------------------------------||
E|----------------------|---------------------------------||


Solo (электр. гитара):

E|--------5---------------------------|--------5--------------|
H|------5---8p5---------A.H.----------|------5---8---5~~~-----|
G|--7b9---------7-5-7-5-7---7p6p5-----|--7b9-------7----------|
D|-------------------------------7p5--|-----------------------|
A|------------------------------------|-----------------------|
E|------------------------------------|-----------------------|


E|--0-5-7-8-/10-8-7---|---4h5p4---------------------------|
H|-(5)----------------|---------5-------------------------|
G|--------------------|-----------7-4-5-------------------|
D|--------------------|-----------------------------------|
A|--------------------|-----------------------------------|
E|--------------------|-----------------------------------|

E|-----------------------------|--------------------------|
H|-----------------------------|--------------------------|
G|-------------------------5~~~|-------------------4~~----|
D|---------------------5h7-----|------------5--5h7--------|
A|---------3---3h5--7----------|-----3--5/7---------------|
E|-(0h)3h5---------------------|--3h5---------------------|


E|---------------------8--10-8-10--|--10b12r10p8---8-------|
H|-------------8--8h10-------------|------------------10~~~|
G|------5--7/9---------------------|-------------9---------|
D|--5h7----------------------------|-----------------------|
A|---------------------------------|-----------------------|
E|---------------------------------|-----------------------|


E|--12p8----8-12h8--/13----|--10p7---7-10p7---/12--------|
H|-------10----------------|-------8---------------------|
G|-------------------------|-----------------------------|
D|-------------------------|-----------------------------|
A|-------------------------|-----------------------------|
E|-------------------------|-----------------------------|

E|--8-8-7h8p7-5------------|-7-7-5h7p5-------------------|
H|--------------8-6-5------|-----------8-6-5-------------|
G|--------------------7~~--|-----------------7-/9--------|
D|-------------------------|-----------------------------|
A|-------------------------|-----------------------------|
E|-------------------------|-----------------------------|

E|-8h12p8---------8-12p8--13p10---13p10----13------------|
H|--------10---10---------------10------10----10----------|
G|-----------9-------------------------------------------|
D|-------------------------------------------------------|
A|-------------------------------------------------------|
E|-------------------------------------------------------|

E|--7h10p7-------7-10p7--12p8---12p8---12----------------|
H|---------8---8--------------8------8----8--------------|
G|-----------7-------------------------------------------|
D|-------------------------------------------------------|
A|-------------------------------------------------------|
E|-------------------------------------------------------|

E|--8-8-7h8p7-5------------|-7-7-5h7p5-------------------|
H|--------------8-6-5------|-----------8-6-5-------------|
G|--------------------7~~--|-----------------7-5---------|
D|-------------------------|-----------------------------|
A|-------------------------|-----------------------------|
E|-------------------------|-----------------------------|

E|--17p12----------------12-13p10----13p10----13---------|
H|--------13----13----13----------10-------10----10------|
G|-----------14----14------------------------------------|
D|-------------------------------------------------------|
A|-------------------------------------------------------|
E|-------------------------------------------------------|

E|--15p10----------------10-12p8----12p8----12-----------|
H|--------12----12----12---------8-------8-----8---------|
G|-----------12----12------------------------------------|
D|-------------------------------------------------------|
A|-------------------------------------------------------|
E|-------------------------------------------------------|


E|--13p8----------------8-10p7---10p7---10---------------|
H|-------10----10----10--------6------6----6-------------|
G|----------10----10-------------------------------------|
D|-------------------------------------------------------|
A|-------------------------------------------------------|
E|-------------------------------------------------------|


E|--12p7----------------------|-/8-7-5--------------------|
H|-------9---9---9/12--12/10--|--------8-6----------------|
G|---------9---9--------------|---------------------------|
D|----------------------------|---------------------------|
A|----------------------------|---------------------------|
E|----------------------------|---------------------------|

E|--5h8p5-7h5-7p5-------------|---------------------------|
H|-----------------8-6-6/8----|---------------------------|
G|----------------------------|---------------------------|
D|----------------------------|---------------------------|
A|----------------------------|---------------------------|
E|----------------------------|---------------------------|

Вверх

Лолита (2 вариант)

E||----------------------|--7----8--------------|--10------------------|
B||--------------10------|------------10--------|----------------------|
G||--9------9------------|----------------------|------------10--------|
D||----------------------|----------------------|----------------------|
A||----------------------|----------------------|----------------------|
E||----------------------|----------------------|----------------------|



--------------10------|--8----7--------------|----------------------|
--8------8------------|------------10--------|--8-------------------|
----------------------|----------------------|-------10--------9----|
----------------------|----------------------|----------------------|
----------------------|----------------------|----------------------|
----------------------|----------------------|----------------------|



--8------8----7------|--5-------------------|--------------------|
---------------------|-------8----6----5----|--------------------|
---------------------|----------------------|--9--------7--------|
---------------------|----------------------|--------------------|
---------------------|----------------------|--------------------|
---------------------|----------------------|--------------------|



---------------------|
---------------------|
--9----9--------9----|
---------------------|
---------------------|
---------------------|



---------------------------------------------------------------------------|
---------------------------------------------------------------------------|
--9--------9-9-9-9-9-9-9-9-9-9-9-9-9-9-9-9-9-9-9-9-9-9-9-9-9-9-9-9-9-9-9-9-|
---------------------------------------------------------------------------|
---------------------------------------------------------------------------|
---------------------------------------------------------------------------|

Вверх

Марш Из Оперы «Аида»

Тема
Tempo de marcha
E||------++---------------------------------------------
B||------++---------------------------------------------
G||------++---------------------------------------------
D||--2/7-++--9p7-9h11--11p9-7h11--9p7--9h11-11--9h11-11-
A||------++---------------------------------------------
E||------++---------------------------------------------

Окончание
E||--------++-----------*-----------
B||--------++-----------*-----------
G||--------++-----------*-----------
D||--7h9-9-++-4-4-4-6-7-*9p7--------
A||--------++-----------*----9h10---
E||--------++-----------*-----------
Вариант
E||--------------++----------------------------------------------------------------
B||--------------++----------------------------------------------------------------
G||--------------++----------------------------------------------------------------
D||--2/7-7--7-7--++--9-7-9-11-11--11-11--11-9-7-11-11-9-7--9-11-11-11-9-11-11-11---
A||------7--7-7--++-----------11--11-11------------11--------------11---------11---
E||------5--5-5--++------------9---9--9-------------9---------------9----------9---

Окончание
E||---------++-----------*-----------
B||---------++-----------*-----------
G||---------++-----------*-----------
D||--7-9-9-9++-4-4-4-6-7-*9-7--------
A||--------7++-----4---7-*----9-10---
E||--------7++-----2---5-*-----------

Вверх

Полет кондора

1|------------------------------0-|-5----3----0----5----3----0-|---0-----------------------------|
2|------------0--1--0--1--3-----|-------------------------------|------3----1----3----1-----1---|
3|------3-2--3-------------------|-------------------------------|--------------------------2----2|
4|--4-----------------------------|-------------------------------|----------------------------------|
5|------------------------------- -|-------------------------------|----------------------------------|
6|---------------------------------|-------------------------------|----------------------------------|
2 раза
1|--0-5-|-4-5-|4-5|-4-5-|--7-8-7-5--8-5----|----5--------|--
2|-------|------|----|------|------------------8-|--8---8--5--|---
3|-------|------|----|------|---------------------|-------------|--
4|-------|------|----|------|---------------------|-------------|--
5|-------|------|----|------|---------------------|-------------|--
6|-------|------|----|------|---------------------|-------------|--
2 раза

Вверх

Полет кондора (2 вариант)

2:---5-4-5--------------------------------------------
1:---2-3-2-3-5-7---10-10-7-12-10-7--7-5-3-0-----------
2 раза
1:---7-12-10-12-10-12-10-12--12-15^-12-10--10-12^-10-
7-7-5-3-5-3-0
2раза

Вверх

Придорожное кафе

E--------------------------------
H--------------------------------
G----9-11-12~-11-9-7~--9/11/9-9~-
D-9-------------------9----------
A--------------------------------
E--------------------------------
2 раза

E------------------------------------
H---10-12-13~-12-13-15-13~-12-10-12~-
G-9----------------------------------
D------------------------------------
A------------------------------------
E------------------------------------

E--------------------------------
H--------------------------------
G----9-11-12~-11-9-7~--9/11/9-9~-
D-9-------------------9----------
A--------------------------------
E--------------------------------

E-----------------------------------------------------
H-12-12-----------------------------------------------
G-------14-14--12-12-11--11-9-12~-10-9-7~---9/11/9-9~-
D-----------------------------------------9-----------
A-----------------------------------------------------
E-----------------------------------------------------

Вверх