Кипелов

Castlevania
Без Тебя
Будем жить, мать Россия
Возьми Мое Сердце
Вот и все дела
Выпьем ещё
Закат
Здесь Куют Металл
Кто Ты?
Машина Смерти
Я свободен
Я свободен!
Я свободен!
Я свободен (2 вариант)
Вверх

Castlevania

   Fm#      Hm
1)Свет дневной иссяк
Fm#        Hm
И вокруг меня пустыня.
Fm#       D            Db
Звон звёзд гонит прочь мрак,
Fm#         Hm6
Да святится Твоё Имя!
Я здесь - я нигде,
Но слезами боль не хлынет.
Будь свят скорбный удел,
Да святится Твоё Имя!
D7b        Fm#      Db          Fm#
Ни ветра, ни сна. Кто вспомнит меня!

F#
Как бы я хотел плыть в лодке
E
Морем на закат,
F#
Вольным быть как зверь свободный
E
И растить свой сад,
Hm      Db    Fm# E              A
Жить бы лет до ста и любить как все
Hm         Db
Любят на земле!

2)Сын небесных сфер
Здесь лишь демоны и змеи,
Но ты молод и смел
Вместе миром овладеем.
Ты мне поклонись
И получишь все богатства.
Власть Тьмы - вот это жизнь,
В безпробудном танце адском.
Все жены - твои, под звон золотых!

Ты же сам хотел плыть в лодке
Морем на закат,
Вольным быть как зверь свободный
И растить свой сад,
Жил бы лет до ста и любил как все,
Но не на кресте!


E-----------------------!--------------------------!
H-----------------------!----7---9--7---9--7-----7-!
G-----6-----------------!-6--------------------7---!
D-4--------7--6---7---9-!--------------------------!
A-----------------------!--------------------------!
E-----------------------!--------------------------!
свет дне-вной ис-сяк  и во-круг ме-ня пус-ты-ня

E------------------------------!------------------------!
H---------7------------7-------!------------------------!
G----6--------7---9---------6--!--6--------------------7!
D------------------------------!------7-6---4---6--7-9--!
A------------------------------!------------------------!
E------------------------------!------------------------!
звон звёзд го-нит прочь мрак  да свя-ти-тся тво-ё и-мя

E-----4----------5!-------4----------5!
H--6------6--7----!--6---------6--7---!
G-----------------!-------------------!
D-----------------!-------------------!
A-----------------!-------------------!
E-----------------1-------------------!
ни вет-ра ни сна  кто вспом-нит ме-ня

E--6----------------------------!-----------------!
H-----7--7--------------------7-!-5--7---9--7--5--!
G--------------6-----------6----!-----------------!
D-----------8-------8-----------!-----------------!
A-------------------------------!-----------------!
E-------------------------------!-----------------!
как бы я хо-тел плыть в лод-ке  мо-рем на за-кат
(вольным быть как зверь свободный и растить свой сад)

E-------------------------------------!---------------!
H------7------6----7------9--------10-!-------7------9!
G--4-------6---------9----------------!----7-----7----!
D-------------------------------------!-9-------------!
A-------------------------------------!---------------!
E-------------------------------------!---------------!
жить бы лет до ста и любить как все  лю-бят на зем-ле

Вверх

Без Тебя

Dm  Am  Gm A7
Dm  Am  Gm  C  Dm
Am Gm  A7
Dm  Am  Gm  A7

Dm         Am         Gm                         A7
Снова брошен в окна лунный свет,
Dm               Am          Gm     C          Dm
Дом мой сонный серебром одет.

Dm _Am _Gm   A7

Dm            Am       Gm                 A7
Лунной кисти не достичь глубин –
Dm     Am        Gm     C   Dm
Эту бездну знаю я один.

Dm _Am _ Gm     A7

Припев:
D                Gm
Все, как вчера,
D                 Gm
Все, как вчера,
D                Gm
Все, как вчера,
Fm         A             A7
Но без тебя…


Ревность, жалость словно заодно,
Птицей скорби падаю на дно.


Припев:

Вверх

Будем жить, мать Россия

E||-0--2-3-2-0----3--5-7-5-3-5-7--5--4-5-4-2-4-5-4-2-1-2---|
H||------------3-------------------------------------------|

C
Зй, гони-ка паpень с ветеpком,
G#                 C
Чтобы пела кpовь и пыль столбом.
C
Пусть нам свиснет стаpый леший вслед,
G#                    C
Ведьма спpячет в чаще белый свет.

Dm
По pодным доpогам темным и убогим
Bb              C
К чеpту в пасть, чтоб пpопасть,
Dm
А потом воскpеснуть и на том же месте
Bb                A
Кpест вознести эолотой!

Спpава полностью кто слеп, кто наг,
Кто-то бьет иэ пушки наугад.
Слева тишь как божья благодать,
Hет, умом тебя мне не понять.
Тут и там святые, стpанные, босые,
А в глазах - небеса!
Выпьют и эакусят, все до нитки спустят,
Hа pот покажут pукой!

Em                Bm
Будем жить Мать Россия,
G             D B
С нами кpестная сила.
F#m                    C#                F#m
Hет той беды, что пpойдет мимо нас стоpоной!
Em          Bm     G         D B
Были Оpды и Ханы, гpозные атаманы,
F#m            C#              F#m
Hо последнее слово всегда эа тобой!

Зй, гони-ка паpень с ветеpком,
К чеpту думать о лихом былом.
Гpянем песню, да на весь окpест,
Бог не выдаст, свинья не съесть!
Мчаться по доpогам темным и убогим
К чеpту в пасть - зх и не в масть!
А потом воскpеснуть, и на том же месте
Кpест воэнести эолотой!

Будем жить Мать Россия,
С нами кpестная сила.
Hе впеpвой pисковать нам своей головой!
Были Оpды и Ханы, гpоэные атаманы,
Hо последнее слово всегда эа тобой!

Зй, гони-ка паpень на пpостоp,
Hам не стpашен ни один эабоp
Вновь меняют пpяники на кнут
И веками люди чуда ждут.
Мчаться по доpогам темным и убогим
К чеpту в пасть - зх и не в масть!
А потом воскpеснуть, и на том же месте
Кpест воэнести эолотой!

Вверх

Возьми Мое Сердце

Вступление (основная тема) -2 раза
Dm                Dsus2             Dsus4             Dm
E--------------1--|--------------0--|--------------3--|--------------1--|
H----------3------|----------3------|----------3------|----------3------|
G------2----------|------2----------|------2----------|------2----------|
D--0--------------|--0--------------|--0--------------|--0--------------|
A-----------------|-----------------|-----------------|-----------------|
E-----------------|-----------------|-----------------|-----------------|

Аккорд BbDim
E|-3-|
H|-2-|
G|-3-|
D|-2-|
A|---|
E|---|
Dm
Слепая ночь легла у ног
И не пускает за порог
Dm
Брожу по дому как во сне
Но мне покоя нет нигде
Gm              A7
Тупая боль пробьет висок
Dm              Bbdim
И пальцы лягут на курок
Gm             Bbdim
А в зеркалах качнется призрак
Bb          A
Призрак любви.

Dm
Возьми мое сердце
F
Возьми мою душу
Gm
Я так одинок в этот час
C
Что хочу умереть
Dm
Мне некуда деться
F
Свой мир я разрушил
Gm
По мне плачет только свеча
C
На холодной заре
Ты умерла в дождливый день
И тени плыли по воде
Я смерть увидел в первый раз
Ее величие и грязь
В твоих глазах застыла боль
Я разделю ее с тобой
А в зеркалах качнется призрак
Призрак любви
F       Bb        C
Я слышу утренний колокол
F           Bb  C
Он славит праздник
F        Bb
И сыпет медью и золотом
Dm                   C
Ты теперь в царстве вечного сна
F       Bb        C
Я слышу утренний колокол
F          Bb C
Он бесов дразнит
F         Bb      C
И звоном небо расколото
Dm            C
На земле я любил лишь тебя...

Dm             Dsus2          Dsus4                     D5
E------------1--|-----------0--|--------------3---2------|---------|
H---------3-----|--------3-----|----------3-----------3--|----3----|
G------2--------|-----2--------|------2------------------|---2-----|
D---0-----------|--0-----------|--0----------------------|--0------|
A---------------|--------------|-------------------------|---------|
E---------------|--------------|-------------------------|---------|
... Возьми мое сердце

Вверх

Вот и все дела

 C          Am     Bm       C      Am        G
Эй, полюби меня чумазым, а чистым каждая возьмёт.
C      Am            Bm     Hm
Я убеждаюсь с каждым разом, всё сильней,
C            Am       Bm
Что жизнь с тобой- не Новый год!

C   Am      Bm    C      Am       G
Нет, я- не принц и я- не белый мотылёк,
C        Am         Bm   Hm Bm Hm Bm
Что рад лететь на огонёк, о- о- о- о,
C       Am            Bm
Но я держался, сколько мог...

припев
C        Hm          Gm       Cm
Да, я- мишень плохая для твоих побед.
Все грехи тебе прощаю, ну а ты мне- нет.
Не буду тратить нервы и сходить с ума:
Я- налево, ты- направо, вот и все дела!

Да, я держался, сколько надо за воздух, дерево, металл.
Но вот пошёл процесс распада- там, в душе
И я держаться перестал.

И я рванул, как ветер, зря не тратя слов,
От злой любви себя храня...о- о- о- о,
Привет, забытые друзья!

припев

проигрыш

Я- не герой твоих романов, послушный глупый мотылёк,
Как говорил бандит с экрана- и был прав:
"Ты прикрути-ка фитилёк"!

И я рванул, как ветер, зря не тратя слов,
От злой любви тебя храня...о- о- о- о,
Привет, забытые друзья- я- я!

припев (два раза)

Вверх

Выпьем ещё

E
Один глоток моей душе не даст огня
E
Hо искры может дать ещё-о-о
A
Hо вот опять судьба никак мне не понять
E
Есть здесь хоть кто-нибудь живо-о-ой

Припев:
H
Выпьем еще приятель,
H
Выпьем ещё-о-о,
H                        G   E
Выпьем еще чуть-чуть и всё-о-о.

Пока еще в сознании вспомним времена
Дешевой жизни и дешевого вина
Когда любой из тех, кто ???
Страну родную продавал.

Припев.

Ты рад свободе выбирать себе дурдом
Хоть здесь хоть где-то за бугром
Hо я стал стар чтоб по другому жить и пить
Hо молод я чтоб умереть.

Вверх

Закат

INTRO: (Гитара 1 = акустика; Синтезатор)
Гит.1E|---------------------------------|---------------------------------|
H|---------------------------------|---------------------------------|
G|-----0-------0-------0-------0---|-----0-------0-------0-------0---|
D|---2---2---2---2---2---2---4---4-|---2---2---2---2---2---2---4---4-|
A|-2-------2-------3-------5-------|-2-------2-------3-------5-------|
E|---------------------------------|---------------------------------|
|                                 |                                 |
СинтеE|---------------------------------|---------------------------------|
H|---------------------------------|-----------------7---------------|
G|-4---------------5---------------|-4-----------------------7-------|
D|-------------------------7-------|---------------------------------|
A|---------------------------------|---------------------------------|
E|---------------------------------|---------------------------------|

Гит.1E|---------------------------------|---------------------------------|
H|---------------------------------|---------------------------------|
G|-----0-------0-------0-------0---|-----0-------0-------0-------0---|
D|---2---2---2---2---2---2---4---4-|---2---2---2---2---2---2---4---4-|
A|-2-------2-------3-------5-------|-2-------2-------3-------5-------|
E|---------------------------------|---------------------------------|
|                                 |                                 |
СинтеE|---------------------------------|---------------------------------|
H|---------------------------------|---------------------------------|
G|-4---------------5---------------|-4-------------------------------|
D|--------------------------7------|-----------------5-------4-------|
A|---------------------------------|---------------------------------|
E|---------------------------------|---------------------------------|
Следом идет.
ВокалE|-------------------------------------------------------------------|
H|-------------------------------------------------------------------|
G|--4--------------5----4-2----------4--2--0-2------------4----------|
D|---------5--2--------------------------------2-0---2---------------|
A|-------------------------------------------------------------------|
E|-Я     вижу,  как  закат      стекла   окoнные   плавит --------|
|                                 |                                 |
Гит.1E|-Em------0-------Am------0-------|-D-----2-3-2-----Em------0-------|
H|-------0---0-----------1---1-----|-----3-------3---------0---0-----|
G|-----0-------0-------2-------2---|---2-----------2-----0-------0---|
D|---2-----------2---2-----------2-|-0-----------------2-----------2-|
A|-----------------0---------------|---------------------------------|
E|-0-------------------------------|-----------------0---------------|
|                                 |                                 |
СинтеE|---------------------------------|---------------------------------|
H|---------------------------------|---------------------------------|
G|---------------------------------|---------------------------------|
D|-2-------------------------------|---------------------------------|
A|---------------------------------|---------------------------------|
E|---------------------------------|---------------------------------|

ВокалE|-------------------------------------------------------------------|
H|-------------------------------------------------------------------|
G|---------4--------5----4--2----------------------------------------|
D|--2---------5--2------------5------4-5---4------5--4---------------|
A|-------------------------------------------------------------------|
E|-День  прожит, a ночь оставит    тени снов   в углах ------------|
|                                 |                                 |
Гит.1E|-Em------0-------Am------0-------|-F#--------2-----H-------2-------|
H|-------0---0-----------1---1-----|---------2---2-----4---4---4-----|
G|-----0-------0-------2-------2---|---3---3-------3-4---4-------4---|
D|---2-----------2---2-----------2-|-4---4-------------------------4-|
A|-----------------0---------------|---------------------------------|
E|-0-------------------------------|---------------------------------|

ВокалE|-------------------------------------------------------------------|
H|-------------------------------------------------------------------|
G|--4--------------5-----4--2-------4-2-0---2-------------4----------|
D|-----------5--2------------------------------2--0--2---------------|
A|-------------------------------------------------------------------|
E| Мне      не вернуть  назад      серую  птицу  печали ---------|
|                                 |                                 |
Гит.1E|-Em------0-------Am------0-------|-D-----2-3-2-----Em------0-------|
H|-------0---0-----------1---1-----|-----3-------3---------0---0-----|
G|-----0-------0-------2-------2---|---2-----------2-----0-------0---|
D|---2-----------2---2-----------2-|-0-----------------2-----------2-|
A|-----------------0---------------|---------------------------------|
E|-0-------------------------------|-----------------0---------------|

ВокалE|-------------------------------------------------------------------|
H|-------------------------------------------------------------------|
G|---------4-----------5---4--2--------------------------------------|
D|---2---------5---2------------5----4--5-----4--5-4-----------------|
A|-------------------------------------------------------------------|
E|Все в прошлом,так быстро тают  замки  в  облаках. --------------|
|                                 |                                 |
Гит.1E|-Em------0-------Am------0-------|-F#--------2-----H-------2-------|
H|-------0---0-----------1---1-----|---------2---2-----4---4---------|
G|-----0-------0-------2-------2---|---3---3-------3-4---4-----------|
D|---2-----------2---2-----------2-|-4---4---------------------------|
A|-----------------0---------------|---------------------------------|
E|-0-------------------------------|---------------------------------|
(Припев играет особым боем:
d- удар сверху вниз
u - снизу вверх.
Табы на вокал и аккорды с басом играются вместе(везде). Если нет баса можно и без него, но эффект будет другой.
ВокалE|-------------------------------------------------------------------|
H|--3----------------------------------------------------------------|
G|-------------5---4-------------------------5---4-2---4--5----------|
D|--------------------2----------------------------------------------|
A|-------------------------------------------------------------------|
E|-Та - ам   все  живы,                      кто любил меня ---------|
|                                 |                                 |
Гит.1E|-0-E7--0-0-----0-0-0-0---0---0-0-|-0-Am--0-0-----0-0-0-0---0---0-0-|
H|-3-----3-3-----3-3-3-3---3---3-3-|-1-----1-1-----1-1-1-1---1---1-1-|
G|-1-----1-1-----1-1-1-1---1---1-1-|-2-----2-2-----2-2-2-2---2---2-2-|
D|-2-----2-2-----2-2-2-2---2---2-2-|-2-----2-2-----2-2-2-2---2---2-2-|
A|-2-----2-2-----2-2-2-2---2---2-2-|-0-----0-0-----0-0-0-0---0---0-0-|
E|-0-----0-0-----0-0-0-0---0---0-0-|-0-----0-0-----0-0-0-0---0---0-0-|
| d     u d     u d u d   d   d u | d     u d     u d u d   d   d u |
Бас  G|---------------------9-10-9-------|---------------------------------|
D|-----------------6-9-------9-----|-7---------------7---------------|
A|-5-----------7-9-------------7-7-|---------------7---7---------0-2-|
E|---------------------------------|---------------------5-----------|

ВокалE|-------------------------------------------------------------------|
H|-------------------------------------------------------------------|
G|------5--5--5---4---2--------------4--------2----------------------|
D|-------------------------5----4--5-----------------4--4------------|
A|-------------------------------------------------------------------|
E|--- где восход как праздник  бесконе  -  чной   жизни. ----------|
|                                 |                                 |
Гит.1E|-3-C---3-3-----3-3-3-3---3---3-3-|-2-Hm--2-2-----2-2-2-2---2-------|
H|-5-----5-5-----5-5-5-5---5---5-5-|-3-----3-3-----3-3-3-3---3-------|
G|-5-----5-5-----5-5-5-5---5---5-5-|-4-----4-4-----4-4-4-4---4-------|
D|-5-----5-5-----5-5-5-5---5---5-5-|-4-----4-4-----4-4-4-4---4-------|
A|-3-----3-3-----3-3-3-3---3---3-3-|-2-----2-2-----2-2-2-2---2-------|
E|-3-----3-3-----3-3-3-3---3---3-3-|-2-----2-2-----2-2-2-2---2-------|
| d     u d     u d u d   d   d u | d     u d     u d u d   d       |
Бас  G|-----------------5---5---5---5---|-----------------4---------------|
D|---------------------------------|---------------------------------|
A|-3---------0h3-------------------|-2---------0h2-------------------|
E|---------------------------------|---------------------------------|

ВокалE|-------------------------------------------------------------------|
H|--3----------------------------------------------------------------|
G|-----------5------4------------------------5-4--2--4--5------------|
D|--------------------2----------------------------------------------|
A|-------------------------------------------------------------------|
E|-Та - aм  нет счета                     рекам и  морям ----------|
|                                 |                                 |
Гит.1E|-0-E7--0-0-----0-0-0-0---0---0-0-|-0-Am--0-0-----0-0-0-0---0---0-0-|
H|-3-----3-3-----3-3-3-3---3---3-3-|-1-----1-1-----1-1-1-1---1---1-1-|
G|-1-----1-1-----1-1-1-1---1---1-1-|-2-----2-2-----2-2-2-2---2---2-2-|
D|-2-----2-2-----2-2-2-2---2---2-2-|-2-----2-2-----2-2-2-2---2---2-2-|
A|-2-----2-2-----2-2-2-2---2---2-2-|-0-----0-0-----0-0-0-0---0---0-0-|
E|-0-----0-0-----0-0-0-0---0---0-0-|-0-----0-0-----0-0-0-0---0---0-0-|
| d     u d     u d u d   d   d u | d     u d     u d u d   d   d u |
Бас  G|---------------------9-10-9-------|---------------------------------|
D|-----------------6-9-------9-----|-7---------------7---------------|
A|-5-----------7-9-------------7-7-|---------------7---7---------0-2-|
E|---------------------------------|---------------------5-----------|


ВокалE|-------------------------------------------------------------------|
H|-------------------------------------------------------------------|
G|------5--5--5--4-----2-------------4-------------------------------|
D|------------------------5--4-----5---------------------------------|
A|-------------------------------------------------------------------|
E|---- но пo ним нельзя  доплыть  домой... --------------------------|
|                                 |                                 |
Гит.1E|-3-C---3-3-----3-3-3-3---3---3-3-|-2-H---2-2-2-2---2---------------|
H|-5-----5-5-----5-5-5-5---5---5-5-|-4-----4-4-4-4---4---------------|
G|-5-----5-5-----5-5-5-5---5---5-5-|-4-----4-4-4-4---4---------------|
D|-5-----5-5-----5-5-5-5---5---5-5-|-4-----4-4-4-4---4---------------|
A|-3-----3-3-----3-3-3-3---3---3-3-|-2-----2-2-2-2---2---------------|
E|-3-----3-3-----3-3-3-3---3---3-3-|-2-----2-2-2-2---2---------------|
| d     u d     u d u d   d   d u | d     u d u d   d               |
Бас  G|-----------------5---------------|-----------------4---------------|
D|---------------------------------|---------------------------------|
A|-3---------0h3-------------------|-2---------0h2-------------------|
E|---------------------------------|---------------------------------|
Далее идет следущее. Бой надеюсь подбирете сами(аккорды и табы указаны)
G                                D
ВокалE|---------------------------------|---------------------------------|
H|---------------------------------|---------------------------------|
G|-------4---4--4----------2-----4--5-----4-4-----2-2----------------|
D|-----------------5-----5---------|---------------------------------|
A|---------------------------------|---------------------------------|
E|----- Возьми меня  с собой,  пурпур-   ная     река  --------------|
G                                D
ВокалE|---------------------------------|---------------------------------|
H|---------------------------------|---------------------------------|
G|-------4-----4-4--------2-------4--2-------------------------------|
D|-----------------5---5-----------|---------4-----------------------|
A|---------------------------------|--------------5------------------|
E|---- Прочь  унеси  меня    с собой,     закат. ---------------|
Am                               C
ВокалE|---------------------------------|---------------------------------|
H|---------------------------------|---------------------------------|
G|-------2--2-----------------2----|-2-------------------------------|
D|--------------5--5-----4--5------|-----5----5-4----5-4---2---------|
A|---------------------------------|---------------------------------|
E|----- Тоска   o том, что было,  рвется  через  кра-ай -------|
Hm
ВокалE|---------------------------------|
H|---------------------------------|
G|---------------------------------|
D|-------4----4----4---------2--4----2 -|
A|--------------------5-2----------|
E|----- под  кри - ки серых птичьих стай...|
Далеее следует акустическое соло...На бас и на эл.гитаре REST(ГЛУШКА)
|                                                 |                                                 |
Гит.1E|-------------------------------------------------|-------------------------------------------------|
(acu)H|------------------0----0h3-----------5-----------|-7-----------------------------------------------|
G|-------------------------------------------------|-----------------9-------------------------------|
D|-------------------------------------------------|---------------------9---------------------------|
A|-------------------------------------------------|-------------------------9b10r9--7---------------|
E|-------------------------------------------------|-------------------------------------------------|
|                                                 |                                                 |
Бас  G|---R-----------R-----------R-----------R-----R---|---R-----------R-----------R-----------R-----R---|
D|---E-----------E-----------E-----------E-----E---|---E-----------E-----------E-----------E-----E---|
A|-3-S---3-3-3-3-S---3-3-3-3-S---3-3-3-3-S---3-S---|-2-S---2-2-2-2-S---2-2-2-2-S---2-2-2-2-S---2-S---|
E|---T-----------T-----------T-----------T-----T---|---T-----------T-----------T-----------T-----T---|

Гит.1E|-------------------------------------7-----------|-------------------------------------------------|
H|---------------------7-8-10----------------------|-7-----------------------------------------------|
G|-------------------9-----------------------------|----------------9---7---7h9----------------------|
D|-------------------------------------------------|-------------------------------------------------|
A|-------------------------------------------------|-------------------------------------------------|
E|-------------------------------------------------|-------------------------------------------------|
|                                                 |                                                 |
Бас  G|---R-----------R-----------R-----------R-----R---|---R-----------R-----------R-----------R-----R---|
D|---E-----------E-----------E-----------E-----E---|---E-----------E-----------E-----------E-----E---|
A|-3-S---3-3-3-3-S---3-3-3-3-S---3-3-3-3-S---3-S---|-2-S---2-2-2-2-S---2-2-2-2-S---2-2-2-2-S---2-S---|
E|---T-----------T-----------T-----------T-----T---|---T-----------T-----------T-----------T-----T---|

Гит.1E|-------------------------------------------------|-------------------------------------------------|
H|-6-(6)/8-6--------------------------------------|-------------------------------------------------|
G|-------------7-(7)/9-7--------------------------|-11----------------------------------------------|
D|-- gliss ----------------8-(8)/108--------------|-----11------------------------------------------|
A|-------------------------------------8-----------|---------9---9b10r9------------------------------|
E|-------------------------------------------------|-------------------------------------------------|
|                                                 |                                                 |
Bass G|---R-----------R-----------R-----------R-----R---|---R-----------R-----------R-----------R-----R---|
D|---E-----------E-----------E-----------E-----E---|---E-----------E-----------E-----------E-----E---|
A|-1-S---1-1-1-1-S---1-1-1-1-S---1-1-1-1-S---1-S---|---S-----------S-----------S-----------S-----S---|
E|---T-----------T-----------T-----------T-----T---|-2-T---2-2-2-2-T---2-2-2-2-T---2-2-2-2-T---2-T---|

Гит.1E|-------------------------------------------------|-------------------7-----7-----------------------|
H|-6-(6)/8-6--------------------------------------|-------------7-8---------------------------------|
G|-------------7-(7)/9-7--------------------------|-----8---9---------------------------------------|
D|-- gliss ----------------8-(8)/108--------------|-9-----------------------------------------------|
A|-------------------------------------8-----------|-------------------------------------------------|
E|-------------------------------------------------|-------------------------------------------------|
|                                                 |                                                 |
Бас  G|---R-----------R-----------R-----------R-----R---|---R-----------R-----------R-----------R-----R---|
D|---E-----------E-----------E-----------E-----E---|---E-----------E-----------E-----------E-----E---|
A|-1-S---1-1-1-1-S---1-1-1-1-S---1-1-1-1-S---1-S---|-2-S---2-2-2-2-S---2-2-2-2-S---2-2-2-2-S---2-S---|
E|---T-----------T-----------T-----------T-----T---|---T-----------T-----------T-----------T-----T---|
Соло на эл.гитаре:

E|-------------------------------------------------|-------------------------------------------------|
H|-11~~~-------------------10~~~~~~~~--------------|-------------------------------------------------|
G|-------------------------------------12~~~~~-----|-------12~~~~~~~--------------9~~~~~~~-----------|
D|----------------------------------------------12-|-12/14---------------9-9-9/12--------------------|
A|-------------------------------------------------|-------------------------------------------------|
E|-------------------------------------------------|-------------------------------------------------|
|                                                 |                                                 |
Бас  G|---R-----------R-----------R---------------------|---R-----------R-----------R---------------------|
D|---E-----------E-----------E---------------------|---E-----------E-----------E---------------------|
A|-3-S---3-3-3-3-S---3-3-3-3-S---3-3-3-3-3-3-3-3-3-|-2-S---2-2-2-2-S---2-2-2-2-S---2-2-2-2-2-2-2-2-2-|
E|---T-----------T-----------T---------------------|---T-----------T-----------T---------------------|

E|-------------------------------------------------|-------------------------------------------------|
H|-------------------------------------------------|-------------------------------------------------|
G|-11~~~--12p11------------------------------------|-11----12p11-------------------------------------|
D|-------------12----------12/14-------------------|------------12-----------12-9-------------------|
A|-------------------------------------------------|-------------------------------------------------|
E|-------------------------------------------------|-------------------------------------------------|
|                                                 |                                                 |
Бас  G|---R-----------R-----------R---------------------|---R-----------R-----------R---------------------|
D|---E-----------E-----------E---------------------|---E-----------E-----------E---------------------|
A|-3-S---3-3-3-3-S---3-3-3-3-S---3-3-3-3-3-3-3-3-3-|-2-S---2-2-2-2-S---2-2-2-2-S---2-2-2-2-2-2-2-2-2-|
E|---T-----------T-----------T---------------------|---T-----------T-----------T---------------------|

E|-------------------------------------------------|-------------------------------------------------|
H|-11----------11------(11)bend13release11~~~~~~~~-|-11----------11-----(11)bend13release11~~~~~~~~--|
G|---10--10--10------------------------------------|---11--11--11------------------------------------|
D|-----12--12--------------------------------------|-----12--12--------------------------------------|
A|-------------------------------------------------|-------------------------------------------------|
E|-------------------------------------------------|-------------------------------------------------|
|                                                 |                                                 |
Бас  G|---R-----------R-----------R---------------------|---R-----------R-----------R---------------------|
D|---E-----------E-----------E---------------------|---E-----------E-----------E---------------------|
A|-1-S---1-1-1-1-S---1-1-1-1-S---1-1-1-1-1-1-1-1-1-|---S-----------S-----------S---------------------|
E|---T-----------T-----------T---------------------|-2-T---2-2-2-2-T---2-2-2-2-T---2-2-2-2-2-2-2-2-2-|

E|-13p10--------- T ------------------------------------------------|-11--------------11--12--11~~~~~~~~~~~~~~~~~-----|
H|------13p11h13-15p13p11--------- T -------------------------------|-----12------------------------------------------|
G|-----------------------12p10h12-15p12p10-----------12bend15rel12--|---------11--------------------------------------|
D|----------------------------------------12p10---------------------|-------------13----------------------------------|
A|---------------------------------------------13p10----------------|-------------------------------------------------|
E|------------------------------------------------------------------|-------------------------------------------------|
|                                                 |                                                 |
Бас  G|---R-----------R-----------R---------------------|---R-----------R-----------R---------------------|
D|---E-----------E-----------E---------------------|---E-----------E-----------E---------------------|
A|-1-S---1-1-1-1-S---1-1-1-1-S---1-1-1-1-1-1-1-1-1-|-2-S---2-2-2-2-S---2-2-2-2-S---2-2-2-2-2-2-2-2-2-|
E|---T-----------T-----------T---------------------|---T-----------T-----------T---------------------|
ВокалE|-------------------------------------------------------------------|
H|-------------------------------------------------------------------|
G|--4--------------5----4-2----------4--2--0-2------------4----------|
D|---------5--2--------------------------------2-0---2---------------|
A|-------------------------------------------------------------------|
E|-Я     вижц,  как  закат      стекла  оконные пла - вит --------|
|                                 |                                 |
Гит.1E|-0-Em------------0-Am------------|-2-D-------------0-Em------------|
H|-0---------------1---------------|-3---------------0---------------|
G|-0---------------2---------------|-2---------------0---------------|
D|-2---------------2---------------|-0---------------2---------------|
A|-2---------------0---------------|-0---------------2---------------|
E|-0---------------0---------------|-0---------------0---------------|

ВокалE|------------------------------------------------------ ritenuto ---|
H|-------------------------------------------------------------------|
G|--------4----------5-----4--2--------------------------------------|
D|-2---------5----2-------------5-----4------5-------4----------5----|
A|-------------------------------------------------------------------|
E|-День прожит,  a ночь  оставит   те  -  ни     снов     в   уг - |
|                                 |                                 |
Гит.1E|-0-Em------------0-Am------------|-2-F#------------2-H-------------|
H|-0---------------1---------------|-2---------------4---------------|
G|-0---------------2---------------|-3---------------4---------------|
D|-2---------------2---------------|-4---------------4---------------|
A|-2---------------0---------------|-4---------------2---------------|
E|-0---------------0---------------|-2---------------2---------------|

ВокалE|-------------------------------------------------------------------|
H|-------------------------------------------------------------------|
G|-------------------------------------------------------------------|
D|--2----------------------------------------------------------------|
A|-------------------------------------------------------------------|
E|-лах...... --------------------------------------------------------|
|                                 |                                 |
Гит.1E|-0-------Em----------------------|---------------------------------|
H|--0------------------------------|---------------------------------|
G|---0-----------------------------|---------------------------------|
D|----2----------------------------|---------------------------------|
A|------2--------------------------|---------------------------------|
E|--------0------------------------|---------------------------------|
Конец.



Вверх

Здесь Куют Металл

RIFF 1 (*2 times)
E||----------------------------------|---------------------------------|
H||----------------------------------|---------------------------------|
G||----------------------------------|---------------------------------|
D||-2--------------------------------|-(2)---------------------------7-|
A||-2--------------------------------|-(2)-----------------5-6-7---7-5-|
E||-0--------------------------------|-(0)-----------------------7-----|
E|-----------------------------------|---------------------------------|
H|-----------------------------------|---------------------------------|
G|-----------------------------------|---------------------------------|
D|-(7)-------------------------------|-(7)---------------------5-5-4-5-|
A|-(5)-------------------------------|-(5)---------------------------3-|
E|-----------------------------------|---------------------------------|
E|-----------------------------------|- 2/4 measure -----||
H|-----------------------------------|-------------------||
G|-----------------------------------|-------------------||
D|-(5)-------------------------------|-4--5--0--2--------||
A|-(3)-------------------------------|-------------4-----||
E|-----------------------------------|----------------3--||
then lots of A5 chords
(1:07 - 1:30)
RIFF 2 (*4 times)
E||---------------------------------|---------------------------------||
H||---------------------------------|---------------------------------||
G||---------------------------------|---------------------------------||
D||-------7---------------5---------|-------4---------------5---------||
A||-0-5-7-----------0-5-7-----------|-0-5-7-----------0-5-7-----------||
E||---------------------------------|---------------------------------||
then Verse with A5, again Riff 2
CHORUS:
O - e - o - e - e - o - e  -  e - e - o - e - e - o...
E||---------------------------------|---------------------------------||
H||---------------------------------|---------------------------------||
G||-7-----7-----7---7-----7-----7---|-7-----7-----7---7-----7-----7---||
D||-7-----7-----7---7-----7-----7---|-7-----7-----7---7-----7-----7---||
A||-5-5-5-5-5-5-5---5-5-5-5-5-5-5---|-5-5-5-5-5-5-5---5-5-5-5-5-5-5---||
E||---------------------------------|---------------------------------||

Вверх

Кто Ты?

1-Й КУПЛЕТ:
E|---------------------------------------------------------------------------|
B|---------------------------------------------------3----1----3---1---------|
G|-2-----0-----0------------------2-----0----0-------4----2----4---2---------|
D|---4-----2-----2--4-----4-2-------4-----2----2-----------------------------|
A|--------------------5------3-3-----------------------0----0----0---0-------|
E|-----0-----0----------0-----0--------0----0--------------------------------|
сно -  ва   в пол -   ночь      слы -  шy       чей- то  го-лос
E|-----------------------------------------------------------------0---------|
B|---------------------------------------0----0-----3---1---0-------0-0------|
G|-2-----0-----0------------------2-------0----0----4---2---0---2----0-------|
D|---4-----2-----2--4-----4-2-------4---------------------------3-------452--|
A|--------------------5------3-3---------------------------------------------|
E|-----0-----0----------0-----0--------0-----0-------0---0---0---0-----------|
шеп - чет        и - мя        ма - нит        и  зо- вёт ме - ня
E|-------------------------------------------------0-------------------------|
B|-8-----7-----7---5-----4-----4---1-----4-------4---4-----------------------|
F|---9-----8-----8---5-----5-----5---2-----5---5-----------------------------|
D|-----------------------------------------------------5---5-4-2-1-----------|
A|-----0-----0---------0-----0---------0-----0---------------------3-2-------|
E|---------------------------------------------------------------------------|
и  бе- лым     тy- ма- ном           на стё-клах чей - то вздох оставлен
E|-------------------------------------------------0---3-----2---------------|
B|-8-----7-----7---5-----4-----4---1-----4-------4---4---5-----4-------------|
G|---9-----8-----8---5-----5-----5---2-----5---5-----------5-----------------|
D|---------------------------------------------------------------5-4---------|
A|-----0-----0---------0-----0---------0-----0-----------------------3-2-----|
E|-----------------------------------------------------------------------3---|
и  гас-нет   вдpyг пла-мя            хотя   нет  вет -  pа
E|-----------------------------------------------------------------0---------|
B|---------------------------------------0---0------3---1---0-------0-0------|
G|-2-----0-----0-------------------2-------0--0-----4---2---0---2----0-------|
D|---4-----2-----2--4-----4-2--------4--------------------------3-------452--|
A|--------------------5------3-3---------------------------------------------|
E|-----0-----0----------0-----0--------0-----0-------0---0---0---0-----------|
ви - жy        тень   я        кто - то     в  чёp-ном  y   ок-на
ПРИПЕВ:
C  B        Em        G       B
Кто ты - наказанье или милость?
Кто ты? Отpекаться не спеши.
Может за дyшой моей явилась...
C      A     Em
Только нет дyши.
2-Й КУПЛЕТ:
Пpоклят, бpошен, словно камень с неба.
Стpашно падать, только ждать ещё стpашней.
Всё помнить и жаждать любви, но быть pаспятым ею
И мчаться к безyмью, yслышав голос...
Ровно в полночь снова тень идёт ко мне.
ПРИПЕВ.

Вверх

Машина Смерти

      С
Ты уходишь прочь из дома
Dm              G
В час, когда все крепко спят,
C           G
По дороге мне знакомой
F    G     C
От рассвета на закат.

Припев:      A           Dm
Ночь в июле полна соблазнов,
F   G        C
И мятежна ночная даль.
Dm        Am
Свыше путь тебе указан,
C         G
Знает бог один куда...

Слишком много было фальши,
Несвободы и вранья.
Ангел мой, так будет дальше,
Но беги, беги пока.

Припев.

Знаю, встретишь незнакомца,
Сердце вздрогнет и замрет.
В новой клетке будет солнце,
Но никто от боли не спасет.

Припев.

Я и сам мечтал когда-то
Раскачать безумный этот мир,
Но умчалось все куда-то,
Все прошло, как с белых яблонь дым,
Но а ты беги пока
cвободна и легка...

Припев.

Вверх

Я свободен

    Cm   Fm  B
E||--3---4---1---
H||--4---6---3---
G||--5---5---3---
D||--5---3---3---
A||--3---3---1---
E||--3---x---1---

Cm
Hадо мною тишина,
Fm       Cm
Hебо, полное дождя.
Fm              Cm
Дождь проходит сквозь меня,
B
Hо боли больше нет.

Cm
Под холодный шепот звезд
Fm              Cm
Мы сожгли последний мост,
Fm           Cm
И все в бездну сорвалось.
B
Свободным стану я
G#
От зла и от добра.
G                    Cm
Моя душа была на лезвии ножа.


Cm
Я бы мог с тобою быть,
Fm             Cm
Я бы мог про все забыть,
Fm         Cm
Я бы мог тебя любить,
B
Hо это лишь игра.

Cm
В шуме ветра за спиной
Fm          Cm
Я забуду голос твой,
Fm           Cm
И о той любви земной,
B
Что нас сжигала впрах,
G#
И я сходил с ума.
G                          Cm
В моей душе нет больше места для тебя.


Cm          D#         B          Cm
Я свободен! Словно птица в небесах.
Cm          D#     B                 Cm
Я свободен! Я забыл, что значит страх.
Cm          D#         B           Cm
Я свободен! С диким ветром наравне.
Cm          D#  B            Cm
Я свободен! Hаяву, а не во сне.


Hадо мною тишина,
Hебо, полное огня.
Свет проходит сквозь меня,
И я свободен вновь.


Я свободен от любви,
От вражды и от молвы,
От предсказанной судьбы
И от земных оков,
От зла и от добра.
В моей душе нет больше места для тебя.


Я свободен! Словно птица в небесах.
Я свободен! Я забыл, что значит страх.
Я свободен! С диким ветром наравне.
Я свободен! Hаяву, а не во сне.

Вверх

Я свободен!
mp3

       Hm
Надо мною - тишина,
Em        Hm
Небо, полное дождя,
Em             Hm
Дождь проходит сквозь меня,
A
Но боли больше нет.

Под холодный шепот звезд
Мы сожгли последний мост,
И все в бездну сорвалось,
Свободным стану я

G
От зла и от добра,
F#                  Hm
Моя душа была на лезвии ножа.

Проигрыш:
Hm D A Hm

Я бы мог с тобою быть,
Я бы мог про все забыть,
Я бы мог тебя любить,
Но это лишь игра.

В шуме ветра за спиной
Я забуду голос твой,
И о той любви земной,
Что нас сжигала в прах,
И я сходил с ума...
В моей душе нет больше места для тебя!

Hm         D         A          Hm
Я свободен, словно птица в небесах,
Я свободен, я забыл, что значит страх.
Я свободен - с диким ветром наравне,
Я свободен наяву, а не во сне!

Надо мною - тишина,
Небо, полное огня,
Свет проходит сквозь меня,
И я свободен вновь.
Я свободен от любви,
От вражды и от молвы,
От предсказанной судьбы
И от земных оков,
От зла и от добра...
В моей душе нет больше места для тебя!

Я свободен, словно птица в небесах,
Я свободен, я забыл, что значит страх.
Я свободен - с диким ветром наравне,
Я свободен наяву, а не во сне!

<<проигрыш (куплет без слов)>>

C#m        E         H          C#m
Я свободен, словно птица в небесах,
Я свободен, я забыл, что значит страх.
Я свободен - с диким ветром наравне,
Я свободен наяву, а не во сне!

Вверх

Я свободен!
mp3

Hm
Надо мною - тишина,
C(III)     Hm
Небо, полное дождя,
C(III)          Hm
Дождь проходит сквозь меня,
A
Но боли больше нет.

Hm
Под холодный шепот звезд
C(III)        Hm
Мы сожгли последний мост,
C(III)       Hm
И все в бездну сорвалось,
A
Свободным стану я
G(III)
От зла и от добра,
F#                Hm
Моя душа была на лезвии ножа.

Проигрыш:
Hm A F#m Hm

Я бы мог с тобою быть,
Я бы мог про все забыть,
Я бы мог тебя любить,
Но это лишь игра.
В шуме ветра за спиной

Я услышу голос твой,
И о той любви земной,
Что нас сжигала в прах,
И я сходил с ума...
В моей душе нет больше места для тебя!

Hm         A        F#m         Hm
Я свободен, словно птица в небесах,
Я свободен, я забыл, что значит страх.
Я свободен - с диким ветром наравне,
Я свободен наяву, а не во сне!

Надо мною - тишина,
Небо, полное огня,
Свет проходит сквозь меня,
И я свободен вновь.
Я свободен от любви,
От вражды и от молвы,
От предсказанной судьбы
И от земных оков,
От зла и от добра...
В моей душе нет больше места для тебя!

Я свободен, словно птица в небесах,
Я свободен, я забыл, что значит страх.
Я свободен - с диким ветром наравне,
Я свободен наяву, а не во сне!

Вверх

Я свободен (2 вариант)

1-й КУПЛЕТ:

ВокалE|----------------------------------|
H|----------------------------------|
G|----------------------------------|
D|--------------------------8----6--|
A|----------------------------------|
E|------------------------ На - до  |

Гит. E|--3-------3-------3-------3-------|
H|--4-------4-------4-------4-------|
G|--5-------5-------5-------5-------|
D|----------------------------------|
A|----------------------------------|
E|----------------------------------|

ВокалE|--------------------------------------------------------------------|
H|------------------------------8-8---9-----8-6--9----8------8------8-|
G|----------5-----7-8-------------------------------------------------|
D|----5-5-------------------------------------------------------------|
A|--------------------------------------------------------------------|
E|-  мною  ти -  шина,         небо  пол -  ное дождя,      Дождь  про|

Гит. E|--3-------3-------3-------3-------|-4-------4-------3-------3-------|
H|--4-------4-------4-------4-------|-6-------6-------4-------4-------|
G|--5-------5-------5-------5-------|-5-------5-------5-------5-------|
D|----------------------------------|---------------------------------|
A|----------------------------------|---------------------------------|
E|----------------------------------|---------------------------------|

ВокалE|--------------------------------------------------------------------|
H|--9-8-----6----9--8------8--6-------6-------------------------------|
G|---------------------------------8-------8--7-----------------------|
D|------------------------------------------------------------8---6---|
A|--------------------------------------------------------------------|
E| ходит сквозь  меня,    но бо - ли  больше нет,            Под хо - |

Гит. E|--4-------4-------3-------3-------|-1-------1-------1-------1-------|
H|--6-------6-------4-------4-------|-3-------3-------3-------3-------|
G|--5-------5-------5-------5-------|-3-------3-------3-------3-------|
D|----------------------------------|---------------------------------|
A|----------------------------------|---------------------------------|
E|----------------------------------|---------------------------------|

ВокалE|--------------------------------------------------------------------|
H|----------------------------8--8----9--8--6--9---8---------8----8---|
G|-----------5-7-----8------------------------------------------------|
D|--5--5--------------------------------------------------------------|
A|--------------------------------------------------------------------|
E| лодный   шёпот  звёзд     мы  сожгли последний мост,      и  всё в |
|                                  |                                 |
Гит. E|--3-------3-------3-------3-------|-4-------4-------3-------3-------|
H|--4-------4-------4-------4-------|-6-------6-------4-------4-------|
G|--5-------5-------5-------5-------|-5-------5-------5-------5-------|
D|----------------------------------|---------------------------------|
A|----------------------------------|---------------------------------|
E|----------------------------------|---------------------------------|

ВокалE|--------------------------------------------------------------------|
H|--9---8---6--9-8----------8--6------6-------------------6-----------|
G|--------------------------------8------8--7------------------8---7--|
D|--------------------------------------------------------------------|
A|--------------------------------------------------------------------|
E| бездну  сорвалось   -   свободным стану  я             от зла   и  |

Гин. E|--4-------4-------3-------3-------|-1-------1-------1-------1-------|
H|--6-------6-------4-------4-------|-3-------3-------3-------3-------|
G|--5-------5-------5-------5-------|-3-------3-------3-------3-------|
D|----------------------------------|---------------------------------|
A|----------------------------------|---------------------------------|
E|----------------------------------|---------------------------------|

ВокалE|--------------------------------------------------------------------|
H|--------------------------------------------------------------------|
G|-8---7--5------------5----7---5-----4--------4---5--7------8----7---|
D|-------------------------------------------5-------------5----------|
A|--------------------------------------------------------------------|
E| от добра,          Мо -  я  ду -  ша     была  на лез - вии   но - |

Гит. E|----------------------------------|---------------------------------|
H|----------------------------------|-3-------3-------3-------3-------|
G|--5-------5-------5-------5-------|-4-------4-------4-------4-------|
D|--6-------6-------6-------6-------|-5-------5-------5-------5-------|
A|--6-------6-------6-------6-------|-5-------5-------5-------5-------|
E|----------------------------------|---------------------------------|

ВокалE|--------------------------------------------------------------------|
H|--------------------------------------------------------------------|
G|--5-----------------------------------------------------------------|
D|--------------------------------------------------------------------|
A|--------------------------------------------------------------------|
E|--жа...-------------------------------------------------------------|

Гит. E|--3-------3-------3-------3-------|-6-------6-------6-------6-------|
H|--4-------4-------4-------4-------|-8-------8-------6-------6-------|
G|--5---|-|-5---|-|-5---|-|-5---|-|-|-8---|-|-8---|-|-7---|-|-7---|-|-|
D|--5---|-|-5---|-|-5---|-|-5---|-|-|-8---|-|-8---|-|-8---|-|-8---|-|-|
A|--3---|-|-3---|-|-3---|-|-3---|-|-|-6---|-|-6---|-|-8---|-|-8---|-|-|
E|--3-------3-------3-------3-------|-6-------6-------6-------6-------|

Я  бы
Гит. E|--3-------3-------3-------3-------|-6-------6-------6---------------|
H|--4-------4-------4-------4-------|-8-------8-------6---------------|
G|--5---|-|-5---|-|-5---|-|-5---|-|-|-8---|-|-8---|-|-7---------------|
D|--5---|-|-5---|-|-5---|-|-5---|-|-|-8---|-|-8---|-|-8---------------|
A|--3---|-|-3---|-|-3---|-|-3---|-|-|-6---|-|-6---|-|-8---------------|
E|--3-------3-------3-------3-------|-6-------6-------6---------------|
2-й КУПЛЕТ:

ВокалE|--------------------------------------------------------------------|
H|------------------------------8--8--9-----8----6--9--8--------8---8-|
G|----------5----7--8-------------------------------------------------|
D|--5-----5-----------------------------------------------------------|
A|--------------------------------------------------------------------|
E| мог с тобо -  ю быть,        я бы мог  про  всё забыть,      я  бы |

Гит. E|--3-------3-------3-------3-------|-4-------4-------3-------3-------|
H|--4-------4-------4-------4-------|-6-------6-------4-------4-------|
G|--5---|-|-5---|-|-5---|-|-5---|-|-|-5---|-|-5---|-|-5---|-|-5---|-|-|
D|--5---|-|-5---|-|-5---|-|-5---|-|-|-4---|-|-4---|-|-5---|-|-5---|-|-|
A|--3---|-|-3---|-|-3---|-|-3---|-|-|-4---|-|-4---|-|-3---|-|-3---|-|-|
E|--3-------3-------3-------3-------|-4-------4-------3-------3-------|

ВокалE|--------------------------------------------------------------------|
H|--9----8--6-----9-8-------8-6-------6-------------------------------|
G|---------------------------------8-------8--7-----------------------|
D|---------------------------------------------------------------8-6--|
A|--------------------------------------------------------------------|
E| иог  тебя     любить,   но э - то  лишь игра.             В  шуме  |

Гит. E|--4-------4-------3-------3-------|-1-------1-------1-------1-------|
H|--6-------6-------4-------4-------|-3-------3-------3-------3-------|
G|--5---|-|-5---|-|-5---|-|-5---|-|-|-3---|-|-3---|-|-3---|-|-3---|-|-|
D|--4---|-|-4---|-|-5---|-|-5---|-|-|-3---|-|-3---|-|-3---|-|-3---|-|-|
A|--4---|-|-4---|-|-3---|-|-3---|-|-|-1---|-|-1---|-|-1---|-|-1---|-|-|
E|--4-------4-------3-------3-------|-1-------1-------1-------1-------|

ВокалE|----------------------------------------------------8---------------|
H|------------------------------8---8-9-8----6-----------------8--8---|
G|----------5-----7-8--------------------------8----------------------|
D|--5--5--------------------------------------------------------------|
A|--------------------------------------------------------------------|
E| ветра   за   спиной          я  забуду   голос   твой,      и  от  |

Гит. E|--3-------3-------3-------3-------|-4-------4-------3-------3-------|
H|--4-------4-------4-------4-------|-6-------6-------4-------4-------|
G|--5---|-|-5---|-|-5---|-|-5---|-|-|-5---|-|-5---|-|-5---|-|-5---|-|-|
D|--5---|-|-5---|-|-5---|-|-5---|-|-|-4---|-|-4---|-|-5---|-|-5---|-|-|
A|--3---|-|-3---|-|-3---|-|-3---|-|-|-4---|-|-4---|-|-3---|-|-3---|-|-|
E|--3-------3-------3-------3-------|-4-------4-------3-------3-------|

ВокалE|--------------------------------------------------------------------|
H|--9----8--6---9--8-------8--6-------6-------------------------------|
G|----------------------------------8---8-----7---------------8----7--|
D|--------------------------------------------------------------------|
A|--------------------------------------------------------------------|
E| той  любви  земной,   что нас сжигала в  прах,           и я  схо- |

Гит. E|--4-------4-------3-------3-------|-1-------1-------1-------1-------|
H|--6-------6-------4-------4-------|-3-------3-------3-------3-------|
G|--5---|-|-5---|-|-5---|-|-5---|-|-|-3---|-|-3---|-|-3---|-|-3---|-|-|
D|--4---|-|-4---|-|-5---|-|-5---|-|-|-3---|-|-3---|-|-3---|-|-3---|-|-|
A|--4---|-|-4---|-|-3---|-|-3---|-|-|-1---|-|-1---|-|-1---|-|-1---|-|-|
E|--4-------4-------3-------3-------|-1-------1-------1-------1-------|

ВокалE|--------------------------------------------------------------------|
H|--------------------------------------------------------------------|
G|--8-----7-5----------5----7---5-----4--------4----5--7---------8--7-|
D|-----------------------------------------5--------------5-----------|
A|--------------------------------------------------------------------|
E| дил  с ума.      В мо -  ей ду -  ше   нет  больше места    для те-|

Гит. E|--4-------4-------4-------4-------|-3-------3-------3-------3-------|
H|--4-------4-------4-------4-------|-3-------3-------3-------3-------|
G|--5---|-|-5---|-|-5---|-|-5---|-|-|-4---|-|-4---|-|-4---|-|-4---|-|-|
D|--6---|-|-6---|-|-6---|-|-6---|-|-|-5---|-|-5---|-|-5---|-|-5---|-|-|
A|--6---|-|-6---|-|-6---|-|-6---|-|-|-5---|-|-5---|-|-5---|-|-5---|-|-|
E|--4-------4-------4-------4-------|-3-------3-------3-------3-------|

ПРИПЕВ: ( Cm, D#, A# )

ВокалE|--------------------------------------------------------------------|
H|-------------------------8------------------------------------------|
G|--5----------5----7-8-----------------------8--8----8-----7----5-3--|
D|--------------------------------------------------------------------|
A|--------------------------------------------------------------------|
E|  бя.        Я  свобо - ден               словно  пти -  ца в небе- |

Гит. E|--3-------3-------3-------3-------|-6-------6-------6-------6-------|
H|--4-------4-------4-------4-------|-8-------8-------6-------6-------|
G|--5---|-|-5---|-|-5---|-|-5---|-|-|-8---|-|-8---|-|-7---|-|-7---|-|-|
D|--5---|-|-5---|-|-5---|-|-5---|-|-|-8---|-|-8---|-|-8---|-|-8---|-|-|
A|--3---|-|-3---|-|-3---|-|-3---|-|-|-6---|-|-6---|-|-8---|-|-8---|-|-|
E|--3-------3-------3-------3-------|-6-------6-------6-------6-------|

сах,        я свобо - ден,                 я  за - был,что значит
Гит. E|--3-------3-------3-------3-------|-6-------6-------6-------6-------|
H|--4-------4-------4-------4-------|-8-------8-------6-------6-------|
G|--5---|-|-5---|-|-5---|-|-5---|-|-|-8---|-|-8---|-|-7---|-|-7---|-|-|
D|--5---|-|-5---|-|-5---|-|-5---|-|-|-8---|-|-8---|-|-8---|-|-8---|-|-|
A|--3---|-|-3---|-|-3---|-|-3---|-|-|-6---|-|-6---|-|-8---|-|-8---|-|-|
E|--3-------3-------3-------3-------|-6-------6-------6-------6-------|
страх.      Я свобо - ден,              с  ди - ким вет - ром  нарав-
Гит. E|--3-------3-------3-------3-------|-6-------6-------6-------6-------|
H|--4-------4-------4-------4-------|-8-------8-------6-------6-------|
G|--5---|-|-5---|-|-5---|-|-5---|-|-|-8---|-|-8---|-|-7---|-|-7---|-|-|
D|--5---|-|-5---|-|-5---|-|-5---|-|-|-8---|-|-8---|-|-8---|-|-8---|-|-|
A|--3---|-|-3---|-|-3---|-|-3---|-|-|-6---|-|-6---|-|-8---|-|-8---|-|-|
E|--3-------3-------3-------3-------|-6-------6-------6-------6-------|
не.       Я свобо - ден                   на -   яву,      а  не  во
Гит. E|--3-------3-------3-------3-------|-6-------6-------6-------6-------|
H|--4-------4-------4-------4-------|-8-------8-------6-------6-------|
G|--5---|-|-5---|-|-5---|-|-5---|-|-|-8---|-|-8---|-|-7---|-|-7---|-|-|
D|--5---|-|-5---|-|-5---|-|-5---|-|-|-8---|-|-8---|-|-8---|-|-8---|-|-|
A|--3---|-|-3---|-|-3---|-|-3---|-|-|-6---|-|-6---|-|-8---|-|-8---|-|-|
E|--3-------3-------3-------3-------|-6-------6-------6-------6-------|

сне....
Гит.1E|--3-------3-------3-------3-------|-6-------6-------6-------6-------|
H|--4-------4-------4-------4-------|-8-------8-------6-------6-------|
G|--5---|-|-5---|-|-5---|-|-5---|-|-|-8---|-|-8---|-|-7---|-|-7---|-|-|
D|--5---|-|-5---|-|-5---|-|-5---|-|-|-8---|-|-8---|-|-8---|-|-8---|-|-|
A|--3---|-|-3---|-|-3---|-|-3---|-|-|-6---|-|-6---|-|-8---|-|-8---|-|-|
E|--3-------3-------3-------3-------|-6-------6-------6-------6-------|
|                                  |                                 |
Гит.2E|----------------------------------|---------------------------------|
H|----------------------------------|-8---------------6---------------|
G|--5-----------------------8-7-5---|-----------------------------8-7-|
D|--------------------------------8-|---------------------------------|
A|----------------------------------|---------------------------------|
E|----------------------------------|---------------------------------|

Гит.1E|--3-------3-------3-------3-------|-6-------6-------6---------------|
H|--4-------4-------4-------4-------|-8-------8-------6---------------|
G|--5---|-|-5---|-|-5---|-|-5---|-|-|-8---|-|-8---|-|-7---------------|
D|--5---|-|-5---|-|-5---|-|-5---|-|-|-8---|-|-8---|-|-8---------------|
A|--3---|-|-3---|-|-3---|-|-3---|-|-|-6---|-|-6---|-|-8---------------|
E|--3-------3-------3-------3-------|-6-------6-------6---------------|
|                                  |                                 |
Гит.2E|----------------------------------|---------------------------------|
H|----------------------------------|---------------------------------|
G|--5-----------------------8-7-5---|-5-------3---5-------------------|
D|--------------------------------8-|-----5-----------3---------------|
A|----------------------------------|---------------------------------|
E|----------------------------------|---------------------------------|

3-й КУПЛЕТ
ПРИПЕВ
Далее СОЛЯК: (неполный:(((((
E|----------------------------------|------------------------------------|
H|-8^------8^------8^----------8----|------------------------------------|
G|-7^------7^------7^-7p0-8-10---8~~|(8)~~-----10-10-10-8h10p87---------|
D|----------------------------------|----------------------------10-8----|
A|----------------------------------|-------------------------------11-8-|
E|----------------------------------|------------------------------------|

E|----------------------------------|---------------------------------|
H|----------------------------------|---------------------------------|
G|----------------------------------|-----------------------------12--|
D|------------..........------------|---------------------------------|
A|-10-------------------------------|---------------------------------|
E|----------------------------------|---------------------------------|

E|-11--10---------------------------|-13-13-13-13-11-10---------------|
H|---------13-11h13p11--11----11-13-11|-------------------11~~~~~-----|
G|------------------12--------------|------------------------------10-|
D|----------------------------------|---------------------------------|
A|----------------------------------|---------------------------------|
E|----------------------------------|---------------------------------|

E|----------------------------------|---------------------------------|
H|----------------------------------|---------------------------------|
G|-10--8--8--........--------------|---------------------------------|
D|----------------------------------|------------------------/8---6---|
A|----------------------------------|---------------------------------|
E|----------------------------------|---------------------------------|

E|----------------------------------|-----------------8---------------|
H|--------------------------8-------|-9--8h9p8p6------------------8-8-|
G|----------5---7---8---------------|-------------8-------------------|
D|--5-------------------------------|---------------------------------|
A|----------------------------------|---------------------------------|
E|----------------------------------|---------------------------------|

E|----11-10-8-----------------------|---------------------------------|
H|-9---------11p9p8-.......---------|---------------------------------|
G|----------------------------------|---------------------------------|
D|----------------------------------|-----------------------------6---|
A|----------------------------------|---------------------------------|
E|----------------------------------|---------------------------------|

E|----------------------------------|-----------------8^--8^--8^--8^--|
H|--------------------------8-------|-9--8h9p8p6----------------------|
G|----------5---7---8---------------|-------------8-------------------|
D|--5-------------------------------|---------------------------------|
A|----------------------------------|---------------------------------|
E|----------------------------------|---------------------------------|

E|-8^--8^--8^--------8p6-8p6-8p6-8p6-8p6-|-8-------------------------6|
H|----------------------------------|---8-6-8p6---------6-8-6-8-----6-|
G|----------------------------------|---------------------------------|
D|----------------------------------|---------------------------------|
A|----------------------------------|---------------------------------|
E|----------------------------------|---------------------------------|

E|----------------------------------|---------------------------------|
H|-6-------------8------------------|---------------------------------|
G|-------8-8-------8---....---------|----------------------8---9---10-|
D|----------------------------------|---------------------------------|
A|----------------------------------|---------------------------------|
E|----------------------------------|---------------------------------|
ПОСЛЕДНИЙ РАЗ ПРИПЕВ ИГРАТЬ В Dm КЛЮЧЕ ( Dm, F, C)

Вверх