Коррозия металла

Бей чертей!
Героин
Пятнадцать человек на сундук с мертвецом
Слишком поздно
Вверх

Бей чертей!

INTRO:
E|-0-3-0-3-0-3-0-3-6-3--|-0-3-0-3-0-3-0-3-------|
H|----------------------|-----------------------|
G|----------------------|-----------------------|
D|----------------------|------------------8-5--|
A|----------------------|------------------8-5--|
E|----------------------|------------------6-3--|

E5 G5 E5 G5 E5 G5 E5 G5 B5 G5    | x8

Куплет:
G5    E5     G5  B5 G5
Школьный звонок
G5  E5   G5  B5 G5
Первый урок
итд

проигрыш=intro

Припев
E5   G5 E5   G5 E5  G5 B5 G5    |
Бей чертей, спасай Росси - ю    |  x2
Бей чертей, спасай Москву       |

G5 E5
Цунар первый принял этот нож
G5 E5
Только спас тебя твой лучший друг
G5 E5
С нами нация и с нами бог
G5 E5
Цунареф упал в крови и сдох

Восемь принял морг,
А девятым застрелен твой друг
С его бомбера капает кровь
Это сделал подкупленный мент

/Припев/

Этой весной
Мы в апреле начнём забой
Встань под наши знамена, солдат
Мы зачистим страну и Арбат!

Бей чертей, спасай Россию!
Бей чертей, спасай Москву!
Бей чертей, спасай Россию!
Бей чертей, спасай Москву!

/Припев/

...в крови и сдох

Бей чертей! (4 раза)

Слава России!


Вверх

Героин

Tempo=120
Intro
(00:08-00:59)
GTR1
e|------------------|------------------|------------------|-------------------|
B|------------------|------------------|------------------|-------------------|
G|------------------|------------------|------------------|-------------------|
D|7-----------------|7-----------------|7-----------------|7------------------|
A|7------------5-7--|7------------5-7--|7------------5-7--|7------------5-7---|
E|5------5-7-8------|5------5-7-8------|5------5-7-8------|5------5-7-8-------|
|                                                                            |
| GTR2									      |
e|------------------|------------------|------------------|-------------------|
B|------------------|------------------|------------------|-------------------|
G|------------------|------------------|------------------|-------------------|
D|7-----------------|7-----------------|7-----------------|7------------------|
A|7------------5-7--|7------------5-7--|7------------5-7--|7------------5-7---|
E|5------5-7-8------|5------5-7-8------|5------5-7-8------|5------5-7-8-------|


-|------------------|------------------|------------------|-------------------|
-|------------------|------------------|------------------|-------------------|
-|------------------|------------------|------------------|-------------------|
-|7-----------------|7-----------------|7-----------------|7------------------|
-|7------------5-7--|7------------5-7--|7------------5-7--|7------------5-7---|
-|5------5-7-8------|5------5-7-8------|5------5-7-8------|5------5-7-8-------|
|                                                                            |
|									      |
-|------------------|------------------|------------------|-------------------|
-|------------------|------------------|------------------|-------------------|
-|------------------|------------------|------------------|-------------------|
-|10----------------|10----------------|10----------------|10-----------------|
-|10------------8-10|10------------8-10|10------------8-10|10------------8-10-|
-|8------8-10-11----|8------8-10-11----|8------8-10-11----|8------8-10-11-----|


-|------------------|------------------|------------------|-------------------|
-|------------------|------------------|------------------|-------------------|
-|------------------|------------------|------------------|-------------------|
-|7-----------------|7-----------------|7-----------------|7------------------|
-|7----------5-7-7--|7----------5-7-7--|7----------5-7-7--|7----------5-7-7---|
-|5--------8--------|5--------8--------|5--------8--------|5--------8---------|
|                                                                            |
-|------------------|------------------|------------------|-------------------|
-|------------------|------------------|------------------|-------------------|
-|------------------|------------------|------------------|-------------------|
-|7-----------------|7-----------------|7-----------------|7------------------|
-|7----------5-7-7--|7----------5-7-7--|7----------5-7-7--|7----------5-7-7---|
-|5--------8--------|5--------8--------|5--------8--------|5--------8---------|

-|------------------|
-|------------------|
-|------------------|
-|2-----------------|
-|2-----------------|
-|0-----------------|
|		    |
-|------------------|
-|------------------|
-|------------------|
-|2-----------------|
-|2-----------------|
-|0-----------------|

Double time. Tempo=190
-|------------------|------------------|-------------------|------------------|
-|------------------|------------------|-------------------|------------------|
-|------------------|------------------|-------------------|------------------|
-|12---11---10------|12---11---10------|12---11---10-------|12---11---10------|
-|12---11---10------|12---11---10------|12---11---10-------|12---11---10------|
-|---------------0-0|---------------0-0|---------------0-0-|---------------0-0|
|                                                                            |
-|------------------|------------------|-------------------|------------------|
-|------------------|------------------|-------------------|------------------|
-|------------------|------------------|-------------------|------------------|
-|------------------|------------------|-------------------|------------------|
-|------------------|------------------|-------------------|------------------|
-|------------------|------------------|-------------------|------------------|

-|------------------|------------------|-------------------|------------------|
-|------------------|------------------|-------------------|------------------|
-|------------------|------------------|-------------------|------------------|
-|12---11---10------|12---11---10------|12---11---10-------|12---11---10------|
-|12---11---10------|12---11---10------|12---11---10-------|12---11---10------|
-|---------------0-0|---------------0-0|---------------0-0-|---------------0-0|
|									      |
-|------------------|------------------|-------------------|------------------|
-|------------------|------------------|-------------------|------------------|
-|------------------|------------------|-------------------|------------------|
-|12---11---10------|12---11---10------|12---11---10-------|12---11---10------|
-|12---11---10------|12---11---10------|12---11---10-------|12---11---10------|
-|---------------0-0|---------------0-0|---------------0-0-|---------------0-0|

-|------------------|------------------|-------------------|
-|------------------|------------------|-------------------|
-|------------------|------------------|-------------------|
-|12---11---10------|12---11---10------|12---11---10-------|
-|12---11---10------|12---11---10------|12---11---10-------|
-|---------------0-0|---------------0-0|---------------0-0-|
|                                                         |
-|------------------|------------------|-------------------|
-|------------------|------------------|-------------------|
-|------------------|------------------|-------------------|
-|12---11---10------|12---11---10------|12---11---10-------|
-|12---11---10------|12---11---10------|12---11---10-------|
-|---------------0-0|---------------0-0|---------------0-0-|

End Of Intro
_________________________
Main riff
(00:59-01:45)
verse a
-|------------------------------------|---------------------------------------|
-|------------------------------------|---------------------------------------|
-|------------------------------------|---------------------------------------|
-|----16-----17-----16----17-----1617|----16-----17-----16-----17-----1617--|
-|----16-----17-----16----17-----1617|----16-----17-----16-----17-----1617--|
-|0-0----0-0----0-0----0-0---0-0------|0-0----0-0----0-0----0-0----0-0--------|
|                                                                            |
-|------------------------------------|---------------------------------------|
-|------------------------------------|---------------------------------------|
-|------------------------------------|---------------------------------------|
-|----16-----17-----16----17-----1617|----16-----17-----16-----17-----1617--|
-|----16-----17-----16----17-----1617|----16-----17-----16-----17-----1617--|
-|0-0----0-0----0-0----0-0---0-0------|0-0----0-0----0-0----0-0----0-0--------|

verse b
-|------------------------------------|
-|------------------------------------|
-|------------------------------------|
-|----14-----13-----14----13-----1314|
-|----14-----13-----14----13-----1314|
-|0-0----0-0----0-0----0-0---0-0------|
|                                    |
-|------------------------------------|
-|------------------------------------|
-|------------------------------------|
-|----14-----13-----14----13-----1314|
-|----14-----13-----14----13-----1314|
-|0-0----0-0----0-0----0-0---0-0------|

________________________________________

Verse 1(gtr1 playing main riff verse b)
01:12-01:17
-|15t12t10-15t12t10-15t12t10-15t12t10-15t12t10-15t12t10-15t12t10-15t12t10--
-|-------------------------------------------------------------------------
-|-------------------------------------------------------------------------
-|-------------------------------------------------------------------------
-|-------------------------------------------------------------------------
-|-------------------------------------------------------------------------


----------------------------------------|
-10h12p10h12p10h12p10h12p10h12p10h12----|
-------------------------------------10v|
----------------------------------------|
----------------------------------------|
----------------------------------------|

verse 2(gtr1 playing main riff verse b )
(01:31-01:36)
-|----------^v12~~~~-----------------|
-|^v12~~~~~--------------------------|
-|-----------------------------------|
-|-----------------------------------|
-|-----------------------------------|
-|-----------------------------------|

Bridge (gtr1>r2;)
(01:45-01:54)
-|--------------------|-----------------|
-|--------------------|-----------------|
-|--------------------|-----------------|
-|9------------------|9----------------|
-|7---------9--------|7---------7------|
-|-----------7--------|----------5------|

Chorus (gtr1>r2;)
(01:54-02:14)
-|------------------------------|-------------------------------|
-|------------------------------|-------------------------------|
-|------------------------------|-------------------------------|
-|8--8--7--------8--8--7--------|8--8--5------------------------|
-|8--8--7--------8--8--7--------|8--8--5--------9---7---5---3---|
-|6--6--5--5-5-5-6--6--5--5-5-5-|6--6--7--5-5-5-7-0-5-0-3-0-1-0-|


-|------------------------------|-------------------------------|
-|------------------------------|-------------------------------|
-|------------------------------|-------------------------------|
-|8--8--7--------8--8--7--------|8--8--5------------------------|
-|8--8--7--------8--8--7--------|8--8--5--------9---7---5---3---|
-|6--6--5--5-5-5-6--6--5--5-5-5-|6--6--7--5-5-5-7-0-5-0-3-0-1-0-|

-|------------------------------|-------------------------------|
-|------------------------------|-------------------------------|
-|------------------------------|-------------------------------|
-|8--8--7--------8--8--7--------|8--8--5------------------------|
-|8--8--7--------8--8--7--------|8--8--5--------2---2---2---2---|
-|6--6--5--5-5-5-6--6--5--5-5-5-|6--6--7--5-5-5-0---0---0---0---|

verse 3(gtr1 playing main riff verse b)
(02:19-02:23)
-|--------------------------------------|
-|--------------------------------------|
-|----------9--------------9-----------9|
-|9---12-------9----12--------9---12----|
-|--------------------------------------|
-|--------------------------------------|

verse 3(gtr1 playing main riff verse b)
(02:38-02:42)
-|15--12--15--12------------------15--12--17--12--15--------------------------|
-|----------------15--12------12-----------------------15---12---15-----------|
-|------------------------14------------------------------------------14v-----|
-|----------------------------------------------------------------------------|
-|----------------------------------------------------------------------------|
-|----------------------------------------------------------------------------|


Bridge
(02:52-03:01)
Chorus
(03:01-03:19)
Verse 4(gtr1 only, gtr2 starting solo)
(03:20-03:28)
-|---------------------------|--------------------------|
-|---------------------------|--------------------------|
-|---------------------------|--------------------------|
-|---------------------------|--------------------10--9-|
-|6h7-----4h5-----2h3-----1h2|6h7-----4h5-----2h3-10--9-|
-|----0-0-----0-0-----0-0----|----0-0-----0-0-----8---7-|


Guitar Solo
(03:24-04:06)
Not ready yet.
Bridge
(04:06-04:15)
chorus

Вверх

Пятнадцать человек на сундук с мертвецом

Intro:
e |------------------------------------------------|
B |------------------------------------------------|
G |----------------10-11-10------------------------|
D |-8-8-11-8-(6-8)-10-11-10-11-8-------------------|
A |-8-8-11-8-(6-8)-8--9--8--11-8-------------------|
E |-6-6-9--6-(4-6)----------9--6-/xxxx--(feedback)-|

Verse:
e |------------------------------------------------------------|
B |------------------------------------------------------------|
G |------------------------------------------------------------|
D |------------------------------------------------------------|
A |---------11-6--------------------------11-6-----------------|
E |-6-6-6-6-9--8--9-9-9-11-11-11--6-6-6-6-9--8--11-11-11-9-9-9-|


e |------------------------------|----------------------------------------|
B |------------------------------|----------------------------------------|
G |-15~-14~-13~-12~--------------|----------------------------------------|
D |-----------------17~-16~-15~--|----------------------------------------|
A |------------------------------|----------------------------------------|
E |------------------------------|----------------------------------------|


Chorus:
e |--------------------------------------------------------|
B |--------------------------------------------------------|
G |--------------------------------------------------------|
D |--------------------------------------------------------|
A |-1010101010101010-8-888-11-8-55555555-10-10-10-10-10-10-|
E |-8-8-8-8-8-8-8-8--6-666-9--6-33333333-8--8--8--8--8--8--|
P.M.................   ...      ........

e |-----------------------------------|
B |-----------------------------------|
G |-----------------------------------|
D |-----------------------------------|
A |9-8-7-6-8-7-6-5--------------------|
E |----------------12-11-10-9-8-7-6-5-|


Verse 2x
Chorus 2x

Solo:
e |------^---^---^---------------------------------------------------
B |----------------------------------------15p13p12-15p13p12-12p10p9-
G |-12b-12b-12b-12b-12-12b-12-12b-12b-12b----------------------------
D |------------------------------------------------------------------
A |------------------------------------------------------------------
E |------------------------------------------------------------------
A.H. w/bar
e -----------------------------------------------^--^--------/pickupb---|
B 10p9p7-9p7p5-7p5-5p3p0-5p3p0-5p3p0-5p3p0-5p3p0-2-------------------a--|
G --------------------------------------------------3///-----------r-|
D ----------------------------------------------------------------------|
A -----------------------------------------------------------------------|
E --------------------------------------------------*--------------------|


Solo:
e |----------------------------------------------------------------|
B |----------------------------------------------------------------|
G |----------------------------------------------------------------|
D |----------------------------------------------------------------|
A |------------------------------12-11-10-9-(on d?)----------------|
E |-8"---12-11-10-9-8-7-65--8"-------------11-10-9-8-(on a?)------|


e |----------------------------------------------------------------|
B |----------------------------------------------------------------|
G |----------------------------------------------------------------|
D |-8--------------------------10------------------------10--------|
A |-8-------------------%------10-------------------%----10--------|
E |-6--------------------------8-------------------------12--------|
|
e |-------------------------------------------------------------------------------|
B |-------------------------------------------------------------------------------|
G |-------------------------------------------------------------------------------|
D |---8-7-6-5--------------%-----10-9-8-7-------------------12-11-10-9------------|
A |-----------8-7-6-5---------------------10-9-8-7---%-----------------12-11-10-9-|
E |-------------------------------------------------------------------------------|



e |---------------------------------------------------|
B |---------------------------------------------------|
G |---------------------------------------------------|
D |-8-888-11-8-111111-131313-8-888-11-8-131313-111111-|
A |---------------------------------------------------|
E |-A#----C#-A#-C#-----D#-----------------------------|



Interlude 2 2x
e |------------------------------|-12/12/12/-12--/-12/-12/12/,etc-12~~~-|
B |------------------------------|-harm------------/--------------------------|
G |-10-10-1010-13-1212-1010-9-10-|---------------------------------------------|
D |-F----------G#-G---------E----|---------------------------------------------|
A |------------------------------|---------------------------------------------|
E |------------------------------|---------------------------------------------|

End:
e |--------------------------------|
B |--------------------------------|
G |--------------------------------|
D |------------8-7-6-5-------------|
A |-8888-11-8----------8-7-6-5--8--|
E |-6666-9--6-------------------6--|

Вверх

Слишком поздно

  C
Ночь вернулась.Что случилось?
G
Но не спит никто во мгле
F                    C     G
Где ангел, ангел снов и мглы?
C
Здравствуй, друг. Я - добрый ангел
G
Я могу тебя убить
F                  C     G
Я - ангел. Ангел снов и мглы

ПРИПЕВ:
Am
Слишком поздно!
C              G
Снятся мне порою ночью сны
Am           F
Всё! Слишком поздно!
G
Что вернёшься утром ты
Am
Слишком поздно!
C                   G
В красных розах ночью стынет кровь
Am            F
Всё! Слишком поздно!
G
Ангел снов, блуждающий в ночи


C
Я вернулся. Что ты хочешь?
G
Я могу забрать тебя
F                        C    G
В путь к звёздам -На Солнце и Луну
C
Я - волшебный лунный призрак,
G
Я - свет астральных звёзд
F                       C     G
В небе души вспыхнут огоньками звёзд

Припев.

Вверх