Крупнов Анатолий

Аве Цезарь
Аве Цезарь (2 вариант)
Болезнь
Война
Дом желтого сна (Город в огне)
Дом желтого сна ч.II
Дорожная
Лилии
Пельменная
Полночь
Про любовь
Пятая Песня
Стена
Танго
Тебя больше нет
Я остаюсь!
Я остаюсь! (2 вариант)
Вверх

Аве Цезарь

   Am                       Dm                    E
E|--0--0--0--0--0--0--0--0--1--1--1--1--1--1--1-----0----------|
B|--1--1--1--1--1--1--1--1--3--3--3--3--3--3--3----0-----------|
G|--2--2--2--2--2--2--2--2--2--2--2--2--2--2--2---1------------|
D|-------------------------0--2--3--2--0--2--3---2-------------|
A|-0--2--3--2--0--2--3--4-----------------------2--------------|
E|---------------------------------------------0---------------|

Am
Аве Цезарь, друг сердешный
Ну заходи давно заждались
Dm
Нет не поздно, дома конечно
E
Не развязывай сандалей

Брось ты эту табуретку
Эй! Принисите гостю кресло
Он у нас бывает редко
Так пускай понежит чресло

Эй, промерзлый как собака
Угощайся, а не курим
Эй вы там кончайте плакать
Мы потом даболагурим

Тут у нас такие гости
Украшение компаньи
Что, не спится на погосте
Али плохо закопали?

Или совесть беспокоит
Иль соседи кровопийци
Или что-нибудь такое
Что забыли летописцы

Или может не забыли
Да, писать про это тошно
Знать за это и убили
Император не святоша

Без убийства он не может
Удержаться на маршруте
А в тоске, на смертном ложе
Ты мечтал о Марке Брутте

Да, мечтал, а вышел кукишь
Эмитацией на прах мой
Милосердия не купишь
Не измеришь тетродрахмой

Милосердие для слабых
Сильным яда из флакона
Мне бы слабость, я б тогда-бы
Не стоял у рубекона

Так почему-же, Боже правый
Ты играл со мною в прятки
Почему не дал отравы?
Ты же Цезарь, все в порядке

Ты у нас душа святая
Ты борец не за награды
Что? Пора уже? Светает?
Так заходи, мы будем рады

Вверх

Аве Цезарь (2 вариант)

riff1

E|-------------------------------------------------------------|
B|-------------------------------------------------------------|
G|-------------------------------------------------------------|
D|---2---2---------------------2---2---------------------------|
A|---2---2---------------------2---2---------------------------|
E|---0---0---5-3-2-3--5-3-2-3--0---0---5-3-2-3--5-3-2-3--------|

E|-------------------------------------------------------------|
B|-------------------------------------------------------------|
G|-------------------------------------------------------------|
D|---2---2---------------------2---2------------2-2------------|
A|---2---2---------------------2---2------------2-2------------|
E|---0---0---5-3-2-3--5-3-2-3--0---0---5-3-2-3--0-0------------|

riff2

E|-------------------------------------------------------------|
B|-------------------------------------------------------------|
G|-------------------------------------------------------------|
D|---2---------4---------5---------4---------------------------|
A|---2---------4---------5---------4---------------------------|
E|---0--0-0-0--2--0-0-0--3--0-0-0--2--0-0-0--------------------|

E|-------------------------------------------------------------|
B|-------------------------------------------------------------|
G|-------------------------------------------------------------|
D|---2---------4---------5---------7---------------------------|
A|---2---------4---------5---------7---------------------------|
E|---0--0-0-0--2--0-0-0--3--0-0-0--5--0-0-0--------------------|

E|-------------------------------------------------------------|
B|-------------------------------------------------------------|
G|---2---------4---------5---------4---------------------------|
D|---2---------4---------5---------4---------------------------|
A|---0--0-0-0--2--0-0-0--3--0-0-0--2--0-0-0--------------------|
E|-------------------------------------------------------------|

E|-------------------------------------------------------------|
B|-------------------------------------------------------------|
G|---2---------4---------5---------7---------------------------|
D|---2---------4---------5---------7---------------------------|
A|---0--0-0-0--2--0-0-0--3--0-0-0--5--0-0-0--------------------|
E|-------------------------------------------------------------|

riff3

E|--------------------------------------------------|
B|--------------------------------------------------|
G|--------------------------------------------------|
D|---2---------4---------9---7---5---4--------------|  -> 2 раза
A|---2---------4---------7---5---3---2--------------|
E|---0--0-0-0--2--0-0-0----0---0---0----------------|

E|---------------------|                      E|---------------|
B|---------------------|                      B|---------------|
G|---------------------|                      G|---------------|
D|--2-------2-------45-| <-3 раза, а затем -> D|--2--2--2-2--2-|
A|--2-------2-------45-|                      A|--2--2--2-2--2-|
E|--0--0-0--0--0-0--23-|                      E|--0--0--0-0--0-|


куплет (bass)
G|-------------------------------------------------------------|
D|------------------------------0---2---3---2---0---2---3---5--|
A|0--2---3---2---0---2---3---5----0---0---0---0---0---0---0---0|
E|-0---0---0---0---0---0---0---0-------------------------------|

Аве Цезарь, друг сердечный
Ну заходи давно заждались
Нет не поздно, да конечно
Не развязывай сандалей

Брось ты эту табуретку
Ей!!!принесите гостю кресло
Он у нас бывает редко
Так пускай понежит чресло


E|-------------------------------------------------------------|
B|-------------------------------------------------------------|
G|-------------------------------------------------------------|
E|---2-------4-------5-----4-----------------------------------|
A|---2-------4-------5-----4-----------------------------------|
E|---0-------2-------3-----2-----------------------------------|
Тут у нас такие гости

E|-------------------------------------------------------------|
B|-------------------------------------------------------------|
G|-------------------------------------------------------------|
D|----2-----4-----4-----7--------------------------------------|
A|----2-----4-----5-----7--------------------------------------|
E|----0-----2-----3-----5--------------------------------------|
Укрошение компаний


E|-------------------------------------------------------------|
B|-------------------------------------------------------------|
G|----2--------4----5----4-------------------------------------|
D|----2--------4----5----4-------------------------------------|
A|----0--------2----3----2-------------------------------------|
E|-------------------------------------------------------------|
Что, не спится на погосте


E|-------------------------------------------------------------|
B|-------------------------------------------------------------|
G|---2-------4----3----7---------------------------------------|
D|---2-------4----3----7---------------------------------------|
A|---0-------2----5----5---------------------------------------|
E|-------------------------------------------------------------|
Или плохо закопали

E|-------------------------------------------------------------|
B|-------------------------------------------------------------|
G|-------------------------------------------------------------|
D|-----2-------4------------5-------4--------------------------|
A|-----2-------4------------5-------4--------------------------|
E|--0--0--0-0--2--2-2-2--3--3--3-3--2--2-2-2-------------------|
Или совесть беспокоит

E|-------------------------------------------------------------|
B|-------------------------------------------------------------|
G|-------------------------------------------------------------|
D|-----2-------4------------5-------7--------------------------|
A|-----2-------4------------5-------7--------------------------|
E|--0--0--0-0--2--2-2-2--3--3--3-3--5--5-5-5-------------------|
Иль соседи кровопийцы

E|-------------------------------------------------------------|
B|-------------------------------------------------------------|
G|-----2-------4------------5-------4--------------------------|
D|-----2-------4------------5-------4--------------------------|
A|--0--0--0-0--2--2-2-2--3--3--3-3--2--2-2-2-------------------|
E|-------------------------------------------------------------|
Или что-нибудь такое
E|-------------------------------------------------------------|
B|-------------------------------------------------------------|
G|-----2-------4------------5-------7--------------------------|
D|-----2-------4------------5-------7--------------------------|
A|--0--0--0-0--2--2-2-2--3--3--3-3--5--5-5-5-------------------|
E|-------------------------------------------------------------|
Что забыли летописцы

Вверх

Болезнь
mp3

E|--------0------0------0-----0-----0------0------0-----0|
B|------1------1------1-----1-----1------1------1-----1--|
G|----2------2------2-----2-----2------2------2-----2----| n раз
D|----------------------------0--------------------------|
A|-0---------------------------------3------0------0-----|
E|-------3------2-----1----------------------------------|

E|--------0------0------0-----0-----0------0------------0------|
B|------1------1------1-----1-----1------1----1-0^1^0-0--------|
G|----2-----2------2-----2-----2------2-----2-------------2----|
D|---------------------------0---------------------------------|
A|-0-------------------------------3------0--------------------|
E|------3------2-----1-----------------------------------------|

E|--------0------0------0-----0-----0------0---0-0-0-0-0-------|
B|------1------1------1-----1-----1------1-----1-1-1-1-1-------|
G|----2-----2------2-----2-----2------2-----2------------------|
D|---------------------------0---------------------------------|
A|-0-------------------------------3------0--------------------|
E|-------3------2-----1----------------------------------------|

Люди души коптят на бездумном огне
И смеются от счастья, как дети ...
А по чьей-то сутулой, склоненной спине
Хлещет плетью разгневанный ветер ...
Над шеренгой пустых, обезличенных лиц
Плавно реют бездумные грезы,
А по крышам домов и по стенам больниц
Льются чьи-то прозрачные слезы ...

ПРОИГРЫШ

Тихо сердце стучит - это время мое,
Я поспешно седлаю коня.
Конь мой быстро домчит в те места, где поет
Желтый филин, встречая меня.
Хрупко светит луна. Из хрустальных домов
Раздается то шепот, то смех.
Опускаюсь на дно, поднимаюсь со дна,
Растворяюсь, как кошка, во тьме ...

ПРОИГРЫШ

Из простого огня соткан клетчатый флаг
Так же чисто, как льется вода ...
Посмотри на меня, и я подам тебе знак -
Ты со мною теперь навсегда!!!

ПРОИГРЫШ

И сжималась душа, расширялся зрачок,
Мысли вялою шли чередой ...
Время мчалось вперед, как гигантский волчок,
Сильно пущенный чьей-то рукой ...
Год за десять и мимо вся жизнь пронеслась,
Мысли были, и канули в вечность ...
Ты и сам не заметил, как нить порвалась:
Тишина, пустота, бесконечность ...

Вверх

Война

Acoustic intro

E|----7-7---7-7---7-7---7-7---7-7---7-7---8--8----7-7----------|
B|----8-8---7-7---8-8---7-7---8-8---7-7---8--8----7-7----------|
G|----9-9---9-9---9-9---9-9---9-9---9-9---9--9----8-8----------|
D|----9-9---9-9---9-9---9-9---9-9---9-9---10-10---9-9----------|
A|----7-7---7-7---7-7---7-7---7-7---7-7---10-10---9-9----------|
E|----7-7---7-7---7-7---7-7---7-7---7-7---8--8----7-7----------|

riff1
E|-------------------------------------------------------------|
B|-------------------------------------------------------------|
G|-------------------------------------------------------------|
D|--2-2-2---2-2-2---2-2-2---2-2-2-------5------4---------------|
A|--2-2-2---2-2-2---2-2-2---2-2-2-------5------4---------------|
E|--0-0-0---0-0-0---0-0-0---0-0-0---0-0-3--0-0-2---------------|

E|-------------------------------------------------------------|
B|-------------------------------------------------------------|
G|-------------------------------------------------------------|
D|--2-2-2---2-2-2---2-2-2---2-2-2-----45-----4-----------------|
A|--2-2-2---2-2-2---2-2-2---2-2-2-----45-----4-----------------|
E|--0-0-0---0-0-0---0-0-0---0-0-0---0-23--0--2-----------------|

riff2 (куплет)
E|-------------------------------------------------------------|
B|-------------------------------------------------------------|
G|-------------------------------------------------------------|
D|----2------------------------2---4------------------------4--|
A|----2------------------------2---4------------------------4--|
E|----0------------------------0---2------------------------2--|

В воздухе ветает неосознанный страх.
Истинные ценности горят на кострах...

E|-------------------------------------------------------------|
B|-------------------------------------------------------------|
G|-------------------------------------------------------------|
D|----2-2-2---2-2-2---2-2-2---2-2-2----45-----4-4--------------|
A|----2-2-2---2-2-2---2-2-2---2-2-2----45-----4-4--------------|
E|----0-0-0---0-0-0---0-0-0---0-0-0--0-23--0--2-2--------------|

Хей!!! Выхода нет - стискивай зубы, готовься к войне

riff3 (припев)

E|------------------------|
B|------------------------|
G|---2-------54-------7---|  ->
D|---2-------54-------7---|  ->   Не осталось другого пути.
A|---0--0-0--32--0-0--5---|
E|------------------------|

E|------------------------|
B|------------------------|
G|---2-------54-------5---| ->
D|---2-------54-------5---| ->   Выбор сделан, дорога длинна.
A|---0--0-0--32--0-0--3---|
E|------------------------|

E|------------------------|
B|------------------------|
G|---2------54-------7----| ->
D|---2------54-------7----| ->   Выбор сделан и надо идти.
A|---0--0-0-32--0-0--5----|
E|------------------------|

E|------------------------|
B|------------------------|
G|---2------54-------5----| ->
D|---2------54-------5----| ->   Война!!!!!
A|---0--0-0-32--0-0--3----|
E|------------------------|

Вверх

Дом желтого сна (Город в огне)

E7                         A7
Ночь превращается в день,
A7                        E7
День превращается в страх,
Страх превращается в тен,
Тен превращается в прах.
Боль позабудь и поверь -
Смерть будет толко одна,
Все упирается в дверь,
A7                      D7       E7
Двер в дом желтого сна.
G                    D          Am
Припев Здесь легче дышат, здес чище вода,
Em         G
Легко отыскат дорогу сюда,
Д                Ем    Е Е7
Но тот кто пришел, останется здес навсегда.

Ночь превращается в день,
День превращается в бой,
Бой превращается в лень,
Лень превращается в боль.
В пар превращается ртуть,
Ртуть испаряют со дна,
Ртуть превращается в путь,
Путь к дому желтого сна.

Припев

Ноч превращается в ден,
Ден превращается в дым,
Дым превращается в тен.
Я прохожу виражи,
Лож - неболшая вина,
Все превращается в жизн,
Жизн в доме желтого сна.

Припев

Вверх

Дом желтого сна ч.II

D#             F#   D#
А я нашел этот дом через много лет.
D#                 F#  D#
Мне сказали, что в нем я найду ответ...
D#           F#    D#
На любой вопрос, что на ум пришел,
D#              F# D#
И хоть не верил я, но искать пошел.

G#  B G#
Дом,
G#         B G#
вот этот дом,
G#                D#
что ждет меня в нем?

А он сидел у окна, глядя сквозь века.
В голове седина и в глазах тоска.
А на вопросы мои он не отвечал,
И лишь когда я умолк, просто мне сказал:

Припев:
G#    B G#
Вздор,
G#         B G#
Все это вздор!
G#                 B G# C# D#
Хоть мне уже все равно, знай одно:
Gm      С       Gm         С          Gm
Что есть то есть, того что было не вернуть,
C        D#
не изменить ни дня.
Gm      С    Gm            C
Раз ты нашел мой дом, то знай,
Gm              С      D#
когда-нибудь ты сменишь здесь меня!
И это будет твой дом!..

И после этого он говорил до утра.
И о том, что есть, и что было вчера.
И о том, что будет, и будет ли.
И о том, что есть на краю земли.

Но настал рассвет и пропел петух.
Его цепкий взгляд в тот же миг потух,
В тот же самый миг он исчез как дым,
Растворившись в плеске речной воды.

И я остался один.
Но то, что он говорил, помню я:

Припев.

С той поры прошло очень много лет,
И объездил я весь белый свет:
Ближние места, дальние края…
Но надежда есть, где бы ни был я
Что это лишь сон… только лишь сон…
И я не стану как он…

Ну а время шло, отбивая такт.
Я забыть этот сон не могу никак
Я искал интерес, но не находил,
Зная все про всех, был таким как был.

Но как, как же мне быть.
Как этот сон позабыть… ведь помню я:

Припев.

Вверх

Дорожная

C G D F C G Am    x2

C     G        Am    F  C
Если ехать долго по железной по дороге прямо,
G    Am F
То уехать можно далеко.
C  G    Am  F      C
Если вдруг без разрешенья ты ко мне войдешь упрямо,
G     Am
Значит, мы подружимся легко.

За окном как море пашня; я такой-такой-такой прямой, как башня,
Но твоей ноги я не стройней.
Ни в каком Аэрофлоте, в иностранном самолете
Нет комфорта проще и родней.

C G D F C G Am    x2

Много женщин есть красивых, но таких, как здесь в России,
Нету лучше, чище и добрей.
Я про это много знаю, от твоей улыбки таю.
Ну давай обнимемся скорей.

Ты садись со мною рядом, шоколадом угощайся,
Я схожу за водкой и вернусь.
Можешь снять свои наряды, только чур-чур-чур не напивайся,
Я тебя с утра не добужусь.

E  Fmaj7(add B)/E  E Fmaj7(add B)/E E

C G D F C G Am    x2

D      A        Bm  G
Вот и утро, ты одета. Лето за окном настало,
D   A     Bm   G
А вчера еще была зима.
Перебрал вчера я где-то..."Э, с какого мы вокзала?
Ой, вижу, ты не знаешь и сама."

А где мы, кто мы я не знаю. "Как тебя зовут, родная?"
"Очень своевременный вопрос."
"Помнишь, нас вчера качало? Залезай под одеяло,
Видишь, мы слетели под откос."

Вверх

Лилии

     Em
E|-----------------|
B|-----------------|
G|-----------------|
D|-----2-------3h2-|
A|---2---2---2-----|
E|-0-------0-------|

Em
Полуувядших лилий аромат
D5
Мои мечтанья легкие туманит
C5
Мне лилии о смерти говорят
C5        D5         E5
О времени когда меня не станет  (2 раза)

О времени когда ....
Мир в успокоенной душе моей
Ничто её не радует,не ранит
Не забывай моих последних дней
Пойми меня когда меня не станет

Я знаю,друг,дорога не длинна
И скоро тело бренное устанет
Но верю я,любовь как смерть сильна
Люби меня,когда меня не станет

Мне чудится тайнственный обет
И ведаю,он сердце не обманет
Забвения тебе в разлуке нет
Иди за мной,когда меня не станет

Вверх

Пельменная
mp3

Am Em  C        Em  Am
Выпив дважды по двести
У буфетчицы Лены,
Я гляжу в поднебесье,
Сидя в душной пельменной.

Я леплю темный шарик
Из Орловского хлеба.
Я хочу быть как солнце,
А не серым, как небо.

Побежали к разливу
Трое пьяных прохожих,
Я ж хочу быть как солнце -
На других непохожим.

Каждый мнит себя солнцем
Или центром вселенной.
Я ж хочу быть как солнце,
Сидя в душной пельменной.

Вверх

Полночь
mp3

  Dm               Cm          Bb                A
Мрачной ухмылкой ощерился дом, улиц горбаты хребты,
Dm              Cm             Bb                A
Движется время своим чередом, к полночи близишься ты.
Cm                Bb
Но все же страх за тобой по пятам семенит
F
в серый закутавшись плащ.
Cm              Bb           G                 E
В комнате тонкою нитью звенит твой истерический плач.

Dm                 Cm            Bb              A
В скрюченных пальцах деревьев и пней мается чья-то душа.
Dm             Cm            Bb                 A
Время летучих мышей и теней стрелки приблизит спешат.

Припев:

Cm                Bb           F
Слышится поступь, кто-то идет, двери запри на засов.
Cm               Bb          G               Е
Близится грозное время и вот слышишь ты бой часов,
Это полночь!

Скалится в окнах зловеще луна, ужас владеет тобой.
Страх неизвестного пробуй до дна, близится час роковой.

Припев

(далее злобное бормотание)

Вверх

Про любовь

Intro
G|-------------------------------------------------------------|
D|------------------------------------5p4----------------------|
A|-----10--9--7--5--------3-------3h5-----5-5/7--5--7----------|
E|--0/--------------7--3---------------------------------------|

G|-------------------------------------------------------------|
D|-----9---5---9---10---9---7---5------------------------------|
A|-------7---7---7----7---7---7----7--------------------------|
E|-------------------------------------------------------------|

Verse
G|-------------------------------------------------------------|
D|---------------------------------------------5p4-------------|
A|--------------------------3--------------3h5-----5-7---------|
E|-------------------------------------------------------------|
Я просто жил и был доволен собой.

G|-------------------------------------------------------------|
D|---------------------------------------------5p4-------------|
A|------------------------3----------------3h5-----5-5---------|
E|-------------------------------------------------------------|

Подружек многих имена забывал.

G|-------------------------------------------------------------|
D|-------------------------------------------------------------|
A|----------------4------------2----------4--------------------|
E|-------------------------------------------------------------|

Легко встречал я день любой.

G|-------------------------------------------------------------|
D|-------------------------------------------------------------|
A|-5-------------4---------2-----------------------------------|
E|-------------------------------------------------------------|

И так же просто засыпал.

Verse 2

G|-------------------------------------------------------------|
D|-------------------------------------------------------------|
A|-------------------------------------3-3h5-5/7---------------|
E|--0-------------------/9-------------------------------------|

И я не знал до последнего дня,

G|-------------------------------------------------------------|
D|-------------------------------------------------------------|
A|----------------------------------3-5------------------------|
E|--0---------------------/9-----------------------------------|

Что есть на свете такое лицо.

G|-------------------------------------------------------------|
D|-------------------------------------------------------------|
A|---5-----------------------4----2----------------4-----------|
E|--------5----2----0----5-------------5--2--0--5--------------|

Я сразу понял  - вот она.

G|-------------------------------------------------------------|
D|-------------------------------------------------------------|
A|---5-----------------------4--2------------------------------|
E|------5------2-----0----5--------5--2--7-5--2--0-2-0---------|

Вверх

Пятая Песня

G                                    Em
Чувство знакомое, холод бежит по спине,
G                         D                     Em
Чувство преграды, я внов приближаюсь к стене,
G                                         D
Снова на камень рука натыкается: Стой!
G                    D                    Em
Снова стена предлагает вступить с нею в бой.

G                 D                 Em
Припев Серой громадою высится над головой.
Годы проходят, стена остается стеной.
Сколько потерянных лиц отражает она.
G                    D          A  A  Asus2 A  Em
Сколько потерянных лет за стеной...            Стена!

В камень шершавый впиваются руки с тоской,
Как в лихорадке бурлит муравейник людской.
Яркие вспышки на сумрачном небе видны,
Блики ложатся на скривленный гребень стены.

Припев

Вверх

Стена
mp3

G                                    Em
Чувство знакомое, холод бежит по спине,
G                         D                     Em
Чувство преграды, я внов приближаюсь к стене,
G                                         D
Снова на камень рука натыкается: Стой!
G                    D                    Em
Снова стена предлагает вступить с нею в бой.

G                 D                 Em
Припев Серой громадою высится над головой.
Годы проходят, стена остается стеной.
Сколько потерянных лиц отражает она.
G                    D          A  A  Asus2 A  Em
Сколько потерянных лет за стеной...            Стена!

В камень шершавый впиваются руки с тоской,
Как в лихорадке бурлит муравейник людской.
Яркие вспышки на сумрачном небе видны,
Блики ложаця на скривленный гребень стены.

Припев

Вверх

Танго

   Am                         E      Am
В ночном саду, под гроздью зреющего манго
A7                                Dm
Максимильян танцует то, что станет танго,
(Dm)                        Am
Тень возвращается подобьем бумеранга,
H                             E
Температура, как подмышкой, тридцать шесть!

Мелькает белая жилетная подкладка,
Мулатка тает от любви, как шоколадка
В мужском объятии посапывая сладко,
H      E           Am
Где надо - гладко, где надо - шерсть.

А в тишине, под сенью девственного леса
Хуарец действеут, как двигатель прогресса,
Забывшим начисто, как выглядят два песо,
Шпионам новые винтовки выдает

Затворы клацают; в расчерченной на клетки
Хуарец ведомости делает отметки
И попугай весьма тропической расцветки
Сидит на ветке и вот так поет:

A7                         Dm
"Презренье к ближнему у нюхающих розы
G7                            C    A7
Ничуть не лучше, но честней гражданской позы
Dm                   Am
И то, и это вызывает кровь и слезы,
H                        E
Тем более в тропиках, у нас, где смерть, увы...

(*опять аккорды 1го куплета*)
Рсапространяется, как мухами зараза
Или в кафе удачно брошенная фраза
И где у черепа в кустах всегда три глаза
И в каждом пышный пучок травы!"

Вверх

Тебя больше нет

 Em                      C
Она прийдёт и к тебе,и за собой позовёт,
D                       A
Она возьмёт твою сердце и душу возьмёт,
Em                      C
Тогда окажешься вдруг у последней черты,
D                       H
Дорога только туда,а перд нею-ты...

Когда ослабнет рука и обострится слух,
Тебе останется жить минут не более двух.
И больше нет друзей,и больше нет подруг,
Теперь любые слова это просто звук.

Припев:

Em                      C
Теперь уже поздно на твой вопрос искать ответ,
A                       H
Слишком поздно,ведь тебя больше нет.
Em                      D
Всё те же звёзды,всё те жеутро и рассвет,
A                       H
А тебе уже всё равно,ведь тебя больше нет.

И всё теряет смысл,и мысль как загнанный зверь,
Та,что пришла за тобой уже закрыла дверь.
И в тот же самый миг ,всё растворится как дым,
Да ей всё равно ,то каким ты был...

Припев.

Вверх

Я остаюсь!

       Am
А мы опять стоим, и в трюме вода,
Am
И ты опять твердишь, что надо бежать,
Dm
И ты опять твердишь, что надо туда,
Am
Где не качает, сухо, и есть чем дышать,
Am
Но ведь и здесь есть шанс, пускай один из десяти,
Am
Пусть время здесь вперед, не мчится - ползет,
Dm
И пусть остаться здесь трудней чем уйти,
F                 E
Я все же верю, что мне повезет...

Dm E            Am
Припев: И я,        Я остаюсь,
Dm  E                  Am
Там,   где мне хочется быть,
Dm    E              Am
И пусть,    я немного боюсь,
Dm  E       F
Но я,    я остаюсь,
E                  Am
Я остаюсь чтобы жить!

Ты говоришь, что здесь достаточно зла,
И ты спешишь скорей отсюда уйти,
Ты говоришь, что мне неволя мила,
И свято веришь в правду другого пути,
Бежать и плыть, лететь, куда все равно,
Лишь бы туда, где нет и не было нас,
Ты говоришь, здесь все погибло давно,
И слишком много чужих среди нас...

Но я,
Я остаюсь,
Там где мне хочется быть,
И пусть, я немного боюсь,
Но я, я, я остаюсь,
Я остаюсь чтобы жить!
Я остаюсь!
Остаюсь!

Я здесь привык, хоть здесь я словно в строю,
Я вижу все, хоть здесь и мало огней,
И на ногах, я здесь, так прочно стою,
А чтоб стоять, я должен держаться корней,
Я здесь привык, я здесь не так одинок,
Хоть иногда, но здесь я вижу своих,
Когда начнет звенеть последний звонок,
Я буду здесь, если буду в живых...

Ведь я,
Я остаюсь,
Там где мне хочется быть,
И пусть, я немного боюсь,
Но я, я остаюсь,
Я остаюсь чтобы жить!
Я остаюсь!
Я остаюсь!

Вверх

Я остаюсь! (2 вариант)

Intro(8 раз)
E|-----------------------------------------------------------|
B|-----------------------------------------------------------|
G|---6/8-8-8---6/8-8-----------------------------------------|
D|---6/8-8-8---6/8-8-----------------------------------------|
A|---4/6-6-6---4/6-6-----------------------------------------|
E|-----------------------------------------------------------|


Verse
E|----------66-6-66-6-66-6-66-6------|
PM-------------------

А мы опять стоим, и в трюме вода,

E|----------66-6-66-6-66-6-66-6------|

И ты опять твердишь, что надо бежать,

A|----------66-6-66-6-66-6-66-6-------|
E|------------------------------------|

И ты опять твердишь, что надо туда,

E|-------------66-6-66-6-66-6-66-6-----|

Где не качает, сухо, и есть чем дышать,
Но ведь и здесь есть шанс, пускай один из дести,
Пусть время здесь вперед, не мчится - ползет,
И пусть остаться здесь трудней чем уйти,

F#5               F5
D|----------------4-----------------3-----------|
A|----------------4-----------------3-----------|
E|----------------2-----------------1-----------|

Я все же верю, что мне повезет...

Chorus
E|--------------------------------------------------|
B|--------------------------------------------------|
G|-------------------6/8-8-8---6--------------------|
D|---1------4--6-----6/8-8-8---6--------------------|
A|---1--1h3-4--6-----4/6-6-6---4--------------------|
E|----------2--4-------------0---0-0-0-0-0-0-0------|
И я,        Я остаюсь,

E|--------------------------------------------------|
B|--------------------------------------------------|
G|--------------------------------------------------|
D|---6----9--------11-------------------------------|
A|---6----9--------11-------------------------------|
E|---4----7---------9-------0000-0000-0000-0000-----|
Там    где мне хочется быть,

E|--------------------------------------------------|
B|--------------------------------------------------|
G|-------------------------6/8-8-8------------------|
D|----6-----9-------11-----6/8-8-8------------------|
A|----6-----9-------11-----4/6-6-6------------------|
E|----4-----7--------9-------------0-0000-0000------|

И пусть,    я немного боюсь,

E|--------------------------------------------------|
B|--------------------------------------------------|
G|--------------------------------------------------|
D|----6--9-11-----9---8-----------------------------|
A|----6--9-11-----9---8-----------------------------|
E|----4--7--9-----7---6-----------------------------|

Но я,    я остаюсь,

E|--------------------------------------------------|
B|--------------------------------------------------|
G|--------------------6/8-8-8--6/8-8----------------|
D|--------------------6/8-8-8--6/8-8----------------|
A|--------------------4/6-6-6--4/6-6----------------|
E|--------------------------------------------------|

Я остаюсь чтобы жить!

Вверх