Оркрист


Дождь (Червяки)



Неодиночество



Отзовись



Письмо



Посвящение
друзьям



Ухожу в осень



Я не хочу оставаться
один


Вверх


Дождь (Червяки)

Проигрыш: D Hm G A x2

D            Hm
Снова дождь на улице льет
G               A
Все зеленеет, растет и цветет
D
Сидят люди дома-
Hm
На улицу лень,
G              A
Лишь червяки бухают весь день!

Проигрыш.

После дождя лужи кругом,
Но всем червякам – они родной дом,
А люди ходят и не замечают
Как червяки в луже бухают!

Проигрыш.

Люди по улице идут под зонтом
А червяки живут под дождем
Им дождик в радость, им грязь не помеха
У червяков еще больше от этого смеха

Проигрыш.

Люди непромокаемое все надевают
А в лужах червяки весь день отдыхают!

Проигрыш до вхождения в нирвану.

Вверх


Неодиночество

Am Em Am Em F G C

Am              Em
Проходя мимо окон витрин
Am                Em
Ты замечаешь, что ты не один,
F   G        C
Ты не один ты не одинок.

Ты душа, что не слышишь меня
Ты глаза, что прозреть не судьба.
Из губ твоих не летят слова.

Как же так получается
Не видя свет, во тьму скрывается
И страх в глазах и смерть близка.

Сильный ветер, что уносит тебя,
Серый пепел, дымка костра,
Это ты только ты.

Вверх


Отзовись

Intro:

G Hm Am E

1|-10-10-10-12-10-9-9-9-10-9-------------------|x2
2|---------------------------12-12-10-9-10-9-7-|

G             Hm
Вновь на небе звезд полно,
Am             E
Лунный свет проник в окно.
G               Hm
Уж двенадцать бьют часы,
Am     E
Отзовись любовь, где ты?

Я сижу всю ночь один,
Одинок и нелюбим.
Ты, луна одна в ночи,
Где любовь найти скажи.

Все равно искать пойду,
Все равно ее найду.
Обойду весь шар земной,
Ради милой и родной.

О, луна ты холодна,
Ты живешь в ночи одна.
А я хочу тепла любви,
Отзовись любовь, где ты?

Outro:
1|-10-10-10-12-10-9-9-9-10-9-------------------|
2|---------------------------12-12-10-9-10-9-7-|

1|-10-10-10-12-10-9-9-9-10-9-9----------------7-|
2|-----------------------------12-10-9-10-9-7-7-|
3|--------------------------------------------7-|

Solo:
1|-10-10-10-12-10-9-9-9-10-9-------------------|
2|---------------------------12-12-10-9-10-9-7-|

1|-10-10-10-12-10-9-9-9-10-9-9----------------|
2|-----------------------------12-10-9-10-9-7-|

Solo играется между куплетами, вместо припева

Вверх


Письмо

Intro: Dm Dsus4 C C* 3 раза
Dm C Am Dm 3 раза

Dm        Dsus4
Белый листок,
C      C*
И пустой конверт.
Dm    Dsus4
Сжатое сердце,
C    C*
Ответа нет.

Dm       C
Читая по губам,
Am     Dm
Строчки стихов.
Dm      C
Открывая письмо,
Am        Dm
Никак не найдет.

Припев
Ответ... ответ...
Письма, что летят из далека,
Письма, что ждут всегда.
Ждут, ждут, ждут, всегда.

Белые страницы, жизненных строк
Пустые небылицы, придумал пророк.
Рассказав обо всем, узнав сто имен,
Потерявший свой дом, ушел на поклон.

Припев
Ответ... ответ...
Письма, что летят из далека,
Письма, что ждут всегда.
Ждут, ждут, ждут, всегда.

Сотни страниц, исписанных строк,
Разбитое сердце никак не поймет.
Что ушел навсегда подавший гудок
Обшарпанный поезд ему невдомек.

Припев
Ответ... ответ...
Письма, что летят из далека,
Письма, что ждут всегда.
Ждут, ждут, ждут, всегда.

C* 032013

Вверх


Посвящение
друзьям

F       C
Пройдет то время
E     Am
Уйдут года
F     C
Мы все вернемся
E        Am
Сюда навсегда

Чтобы с нами не случилось
Куда бы нас не занесло
Сколь много мы бы не ругались
Мы найдемся все равно

Не на север не на запад
И не на юг и на восток
Не разделит нас на части
На куски не разобьет

Может десять или сорок
Может быть и пятьдесят
Может век, а может больше
Может быть и на всегда.

Вверх


Ухожу в осень

Intro:
C           Am          F           G(III)
1|-----0-----|-----0-----|-----1-----|-----3-----|
2|-------1---|-------1---|-------1---|-------3---|
3|---0-----0-|---2-----2-|---2-----2-|---4-----4-| x2
4|-----------|-----------|-----------|-----------|
5|-3---------|-0---------|-3---------|-5---------|
6|-----------|-----------|-----------|-----------|

C        Am
Я хочу уйти в осень
F              G
Загребая руками листву
C        Am
Я хочу уйти в осень
F                G
Я так больше жить не могу

C           Am          F           G(III)
1|-----0-----|-----0-----|-----1-----|-----3-----|
2|-------1---|-------1---|-------1---|-------3---|
3|---0-----0-|---2-----2-|---2-----2-|---4-----4-| x2
4|-----------|-----------|-----------|-----------|
5|-3---------|-0---------|-3---------|-5---------|
6|-----------|-----------|-----------|-----------|

То бездонное небо,
Что таит в себе тайну,
Что скрываясь за тенью
Умирая и тихо крича.

Я лечу, а может мне снится
Я лечу словно как птица
Над морями вершинами гор
Я лечу подо мною простор.

Outro:
C           Am          F           G(III)
1|-----0-----|-----0-----|-----1-----|-----3-----|
2|-------1---|-------1---|-------1---|-------3---|
3|---0-----0-|---2-----2-|---2-----2-|---4-----4-|
4|-----------|-----------|-----------|-----------|
5|-3---------|-0---------|-3---------|-5---------|
6|-----------|-----------|-----------|-----------|

C           Am          F           G(III)
1|-----0-----|-----0-----|-----1-----|-----3---------------3-|
2|-------1---|-------1---|-------1---|-------3-----------3---|
3|---0-----0-|---2-----2-|---2-----2-|---4-----4-------4-----|
4|-----------|-----------|-----------|---------------5-------|
5|-3---------|-0---------|-3---------|-5-----------5---------|
6|-----------|-----------|-----------|-----------3-----------|

Bass:
5|-3--3-0-------------------------|
6|--------5--5-0-1--1-0-3-3-5-3-0-|

Solo:
1|-3--3-0-5--5-0-1--1-0-----------|
2|----------------------3-3-3-1-0-|

Вверх


Я не хочу оставаться
один

D             Hm
В городе осень, летят облака,
A             E
В городе осень, бегу в никуда.
D                 Hm
Темные стекла больших городов
D           Hm
Прозрачные лужи мокрых дорог,

Тяжелые тучи, что летят надо мной
Холодные ночи согреют покой.
Смутное время проходящее зря,
Смутное время уходящее зря.

Припев
Я не хочу оставаться...
Я не хочу оставаться один

Белые ночи в Петербурге летят,
Белые горы на Урале стоят.
Синее небо, как минуту назад,
Пролетело сквозь пальцы и вернулось назад.

Дома в холодильнике кот выпил компот,
Дома в морозильнике полный потоп.
Телека не слышно наверно уж год,
Дома под диваном завалялся Hot-Dog

Припев
Я не хочу оставаться...
Я не хочу оставаться один

Вверх