Worms

Дождь (Червяки)
Отзовись
Вверх

Дождь (Червяки)

Проигрыш: D Hm G A x2

D            Hm
Снова дождь на улице льет
G               A
Все зеленеет, растет и цветет
D
Сидят люди дома-
Hm
На улицу лень,
G              A
Лишь червяки бухают весь день!

Проигрыш.

После дождя лужи кругом,
Но всем червякам – они родной дом,
А люди ходят и не замечают
Как червяки в луже бухают!

Проигрыш.

Люди по улице идут под зонтом
А червяки живут под дождем
Им дождик в радость, им грязь не помеха
У червяков еще больше от этого смеха

Проигрыш.

Люди непромокаемое все надевают
А в лужах червяки весь день отдыхают!

Проигрыш до вхождения в нирвану.

Вверх

Отзовись

Intro:

G Hm Am E

1|-10-10-10-12-10-9-9-9-10-9-------------------|x2
2|---------------------------12-12-10-9-10-9-7-|

G             Hm
Вновь на небе звезд полно,
Am             E
Лунный свет проник в окно.
G               Hm
Уж двенадцать бьют часы,
Am     E
Отзовись любовь, где ты?

Я сижу всю ночь один,
Одинок и нелюбим.
Ты, луна одна в ночи,
Где любовь найти скажи.

Все равно искать пойду,
Все равно ее найду.
Обойду весь шар земной,
Ради милой и родной.

О, луна ты холодна,
Ты живешь в ночи одна.
А я хочу тепла любви,
Отзовись любовь, где ты?

Outro:
1|-10-10-10-12-10-9-9-9-10-9-------------------|
2|---------------------------12-12-10-9-10-9-7-|

1|-10-10-10-12-10-9-9-9-10-9-9----------------7-|
2|-----------------------------12-10-9-10-9-7-7-|
3|--------------------------------------------7-|

Solo:
1|-10-10-10-12-10-9-9-9-10-9-------------------|
2|---------------------------12-12-10-9-10-9-7-|

1|-10-10-10-12-10-9-9-9-10-9-9----------------|
2|-----------------------------12-10-9-10-9-7-|

Solo играется между куплетами, вместо припева

Где купить гитару? На сайте http://gitarre.ru

Вверх